Oops, an error
Loading. Please wait.

Ive Got A Thing About You Baby Tab

2,284 views 24 this week
no commentswrite comment
1 2 3 4 5
excellent!
x 3
add to favorites
launch autoscroll
font size
0
reset
how to read this tab
guitar tuner
Tab Pro tools
  • play this tab
  • loop segment
  • change instrument
  • show fretboard
  • metronome
Autoscroll
slow
fast
+/-
esc
set tempo
stop
Contributor
---------------------------------------------------------------------------
I've Got a Thing About You Baby – Elvis Presley
---------------------------------------------------------------------------
Tabbed by: maguri
Tuning: Standard

Elvis Presley
I've Got a Thing About You Baby (1973)
(Tony Joe White)

From: "Good Times"
Re-released on: "Elvis at Stax"

Outtakes on: 
"Rhythm And Country - Essential Elvis Vol. 5" and
"Elvis at Stax [Deluxe Edition]"

---------------------------------------------------------------------------

INTRO (Bass)
  1 + 2 + 3 + 4 +  1 + 2 + 3 + 4 +  
G|----------------|----------------|
D/6---------------|----------------|
A|----9-7---------|7---9-7-----7---|
E|----------9-7-9-|--------7h9-----|

RIFF
  E
  1 + 2 + 3 + 4 +  1 + 2 + 3 + 4 +  1 + 2 + 3 + 4 +  1 + 2 + 3 + 4 +
e|9---7-----------|----------------|9---7-----------|----------------|
B|--------9-7-5---|5---7---9-------|--------9-7-5---|5---7---5-------|
G|9---9---------6-|----------------|9---9---------6-|----------------|
D|--------9-7-6---|6---7---9-------|--------9-7-6---|6---7---6-------|
A|--------------7-|----------------|--------------7-|----------------|
E|----------------|----------------|----------------|----------------|

---------------------------------------------------------------------------
CHORDS

             E-A-D-G-B-e
Esus4(add13) 0-2-2-2-2-x

---------------------------------------------------------------------------

INTRO 
(bass)   (+ organ riff)
| E | % | % | % |


VERSE
E
I've got something to tell you
       E                        [Esus4(add13)]
That I think you ought to know
E
That my eyes are on you baby 
        E               [Esus4(add13)]
Since a long time ago


VERSE
    E
And now I fin'ly got the nerve
        E                   [Esus4(add13)]                 
And I'm gonna make my move
    E
Now don't you try to turn me off
           E
Cause it's gonna be hard to do


CHORUS
           A               G#m
I've got a thing about you baby
      F#m           E
Ain't nothing I can do
           A               G#m
I've got a thing about you baby
  F#m                [E]
A thing about lovin' you


INTERLUDE (riff)
| E | % | % | % |


VERSE
E                         [Esus4(add13)]
Ain't no two ways about it baby
     E                     [Esus4(add13)]
Your love was meant for me
    E
You know I just can't live without it
   E
It fits me to a T
E                 
Oooh there's something about you baby
[Esus4(add13)] E                   [Esus4(add13) E]
 Can't         get you off my mind
  E                                [Esus4(add13)]
I know that I can't live without you
  E
I think about you all the time


CHORUS
           A               G#m
I've got a thing about you baby
      F#m           E
Ain't nothing I can do
           A               G#m
I've got a thing about you baby
  F#m                [E]
A thing about lovin' you (Riff)


INTERLUDE (riff)
| E | % | % | % |


VERSE 
E                   [Esus4(add13)]
Ain't it just like a woman
         E                
When she knows she's got a man
       E                          [Esus4(add13)]
She'll wring you out and turn you 'bout
       E
In the palm of her hand
    E
And then she starts to thinkin'
    [Esus4(add13)] E
Then maybe she's   put you in a blind
       E                     [Esus4(add13)]
She'll give you just a little lovin'
      E
It'll drive you out of your mind


CHORUS
           A               G#m
I've got a thing about you baby
      F#m           E
Ain't nothing I can do
           A               G#m
I've got a thing about you baby
  F#m                E
A thing about lovin' you 


CHORUS
           A               G#m
I've got a thing about you baby
      F#m           E
Ain't nothing I can do
           A               G#m
I've got a thing about you baby
  F#m                E
A thing about lovin' you 

(repeat and fade)

comments
We did not receive enough feedback on this tab! Please rate:
print report bad tab
1 2 3 4 5
I want to post or [tab]
guest
You may want to rate the tab now too:
select rating
Please do not post tabs as comments. Select "correction" instead!