Oops, an error
Loading. Please wait.

Jailhouse Rock Bass Tab

version 1
version 1

Whole song

Interactive

90,333 views 153 this week
no commentswrite comment
1 2 3 4 5
excellent!
x 13
add to favorites
launch autoscroll
font size
0
reset
guitar tuner
Autoscroll
slow
fast
+/-
esc
set tempo
stop
Help us to improve Ultimate-Guitar.com Take our survey!
×
BASSLINE FOR JAILHOUSE ROCK
                          As recorded by Elvis Presley
      
                                                         Words and Music by Leiber,Stoller

                                            $
G|----------||-----------|-----------||-||-----------|---------|
D|------1---||o-2--------|------1---o||-||o-2--------|------1--|
A|----------||o----------|----------o||-||o----------|---------|
E|----------||-----------|-----------||-||-----------|---------|

                                          [Verse]      

                                                             To Coda
G|----------|----------|----------|----------|--------|---------------||
D|-2--------|------1---|-2--------|------1---|-2------|---------------||
A|----------|----------|----------|----------|--------|---------------||
E|----------|----------|----------|----------|--------|------0--2--3--||
                                                            2  3  4


G||-------------|-2-----------|-------------|-------------|----------1--|-------------|
D||-------2--4--|----4--2--4--|-------------|-2-----------|----1--4-----|-------2--4--|
A||-0--4--------|-------------|-------2--4--|----4--2--4--|-2-----------|-0--4--------|
E||-------------|-------------|-0--4--------|-------------|-------------|-------------|


  [Chorus]

                 1. , 2.         3.
G|-------------|--------------||--------------||-------------|-0-----------|-------------|
D|-------------|-2-------1---o||--2-----------||-------2--4--|----4--2-----|-------------|
A|-------2--4--|----4-2------o||-----4--2-----||-0--4--------|----------4--|-------2--4--|
E|-0--4--------|--------------||-----------4--||-------------|-------------|-0--4--------|


                                                [SOLO]


                                                             D.S. al Coda
G|-------------|----------1--|-------------|-------------|----------------||
D|-2-----------|----1--4-----|-------2--4--|-2-----------|----------1-----||
A|----4--2-----|-2-----------|-0--4--------|----4--2--4--|-2--------------||
E|----------4--|-------------|-------------|-------------|----4-0---------||
                                            1  2 + 3 +

   &
G|-------------|-0-----------|-------------|----------------|----------2--|
D|-------2--4--|----4--2-----|-------------|-0-(0)----------|----1--4-----|
A|-0--4--------|----------4--|-------2--4--|-------4--2-----|-2-----------|
E|-------------|-------------|-0--4--------|-------------4--|-------------|


                                                        1. , 2.
G|-------------|-------------|-------------||-----------|----------||
D|-------2--4--|-2-----------|-2-------1---||o-2--------|------1--o||
A|-0--4--------|----4--2--4--|----4-2------||o----------|---------o||
E|-------------|-------------|-------------||-----------|----------||


                                             [Verse]

G|----------|----------|------------||-------------|-2-----------|-------------|
D|------1---|-2--------|------------||-------2--4--|----4--2-----|-------------|
A|----------|----------|------------||-0--4--------|----------4--|-------2--4--|
E|----------|----------|---0--2--3--||-------------|-------------|-0--4--------|
                                      Out Chorus


G|-------------|----------2--|-------------||--------------|-------------||
D|-2-----------|----1--4-----|-------2--4--||o-2-----------|-2-------1--o||
A|----4--2-----|-2-----------|-0--4--------||o----4--2--4--|----4-2-----o||
E|----------4--|-------------|-------------||--------------|-------------||
                                                          Repeat & Fade



************************************

| (n)  Ghost note

************************************
comments
print report bad tab
I want to post or [tab]
guest
You may want to rate the tab now too:
select rating
Please do not post tabs as comments. Select "correction" instead!