Oops, an error
Loading. Please wait.

Like A Baby Chords

version 2
version 2

Whole song

  • Complete and well-aligned chords for the whole son... Show more
13 views 1 this week
no commentswrite comment
1 2 3 4 5
2 more votes to show rating
add to favorites
launch autoscroll
font size
0
reset
transpose
0
reset
simplify chords
display chords
guitar tuner
Autoscroll
slow
fast
+/-
esc
set tempo
stop
Help us to improve Ultimate-Guitar.com Take our survey!
×
Author
Difficulty
maguri [tm] 27,119
intermediate
About this tab version
Complete and well-aligned chords for the whole song / tab for intro riff / well structured with indications for breaks. Was this info helpful? Yes No
---------------------------------------------------------------------------
          Like a Baby– Elvis Presley
---------------------------------------------------------------------------
Tabbed by: maguri
Tuning: Standard

Elvis Presley
Like a Baby (1960)
(Jesse Stone)

From: "Elvis is Back!"

---------------------------------------------------------------------------

[Intro]

No chords, just a single guitar riff. It’s played on a baritone guitar, so
the last two notes are actually one octave lower.

standard tuning
[ E       A        E   C B
  1 + 2 + 3 + 4 +  1 + 2 + 3 + 4 +  
e|----------------|----------------|
B|----------------|----------------|
G|----------------|----------------|
D|--------------2-|----------------|
A|------2-0---/4--|-----3-2--------|
E|0--/4-----------|0---------------|
                            [ You gave me love ...]

baritone guitar
[ E       A        E   C B
  1 + 2 + 3 + 4 +  1 + 2 + 3 + 4 +  
B |----------------|----------------|
F#|----------------|----------------|
D |--------------2-|----------------|
A |------2-0---/4--|----------------|
E |0--/4-----------|0---------------|
B |----------------|-----1-0--------|
                            [ You gave me love ...]

---------------------------------------------------------------------------

[Intro] 
|  E  A  | E  C B       |
(see above)


[Verse]
            E
You gave me love to enjoy
       A7                    E
Like a bright shiny toy to a baby
          A7
No matter what you would do
    A7                   E
I depended on you like a baby
            B           A7
One thing I know I love you
                      |  E  |  E  B7  |
Yes I loved you like a baby


[Verse]
         E
It was a fool what you took
      A7                          E
And I fell 'cause you look like a baby
           A7
To lover's ways I was blind
          A7                    E
'Cause I just had a mind like a baby
              B
You're just a flirt
      A7                    E
And I had to be hurt like a baby


[Middle 8]
A7                            E
 (Woh oh oh oh oh oh oh oh oh oh ooh)
A7                            E
 (Woh oh oh oh oh oh oh oh oh oh ooh)
A7                            E
 (Woh oh oh oh oh oh oh oh oh oh ooh)
                          1 + 2 + 3 + 4 +  
           F#7            B7      B7
I need you so, I need you so    (break)


[Verse]
          E
The day I found how you lied
       A7                          E
Then I broke down and cried like a baby
            A7
Well it was then I could see
         A7                     E
You were playing with me like a baby
             B             A7
Well you can bet that some day
                      |  E  A  | E
I'll forget you like a baby
Suggest correction
Give kudos to tab author, rate the tab!
1 2 3 4 5
comments
print report bad tab
guest
You may want to rate the tab now too:
select rating
Wanna post a correction for this tab? Suggest correction