Oops, an error
Loading. Please wait.

Love Letters Chords

version 2
version 2

Whole song

  • Complete and well-aligned chords / tab for intro a... Show more
40 views 3 this week
no commentswrite comment
1 2 3 4 5
3 more votes to show rating
add to favorites
launch autoscroll
font size
0
reset
transpose
0
reset
simplify chords
display chords
guitar tuner
Autoscroll
slow
fast
+/-
esc
set tempo
stop
Help us to improve Ultimate-Guitar.com Take our survey!
×
Author
Difficulty
maguri [tm] 27,083
intermediate
About this tab version
Complete and well-aligned chords / tab for intro and coda / intermediate chords with suggestions for playable voicings. Was this info helpful? Yes No
---------------------------------------------------------------------------
          Love Letters – Elvis Presley
---------------------------------------------------------------------------
Tabbed by: maguri
Tuning: Standard

Elvis Presley
Love Letters (1966)
(Edward Heyman/Victor Young)

From: "Elvis' Gold Records Volume 4"

---------------------------------------------------------------------------

time signature: 6/8
 

[Intro] / [Coda]
  F           F   Gm F/A  Bb        Bdim7
  1 + 2 + 3 + 4 + 5 + 6 + 1 + 2 + 3 + 4 + 5 + 6 +  
e|-----------------------|------------------------|
B|1-------------------1--|3-----------3-----------|
G|2-----------2---3---2--|3-----------1-----------|
D|3-----------3---5---3--|3-----------3-----------|
A|3-------------------0--|1-----------2-----------|
E|1-----------1---3------|------------------------|
 F/C         C6 E7/D C7/E F           C7
  1 + 2 + 3 + 4 + 5 + 6 + 1 + 2 + 3 + 4 + 5 + 6 +  
e|-----------------------|------------------------|
B|1-------1-3-1---0------|------------------------|
G|2-------2-3-2---1---3--|2-----------3-----------|
D|------------2---0---2--|3-----------2-----------|
A|3-----------3----------|3-----------3-----------|
E|-----------------------|1-----------------------|


---------------------------------------------------------------------------
CHORDS

        E-A-D-G-B-e
F/A     x-0-3-2-1-1
Bdim7   x-2-3-1-3-x
F/C     x-3-x-2-1-1
C6      x-3-2-2-1-x
E7/D    x-x-0-1-0-0
C7/E    x-x-2-3-x-x

Dm/C    x-3-x-2-3-1
Bm7-5   x-2-3-2-3-x
Am7-5   x-0-1-2-1-3

Abdim7  4-x-3-4-3-x

---------------------------------------------------------------------------



[Intro]
| F   F Gm F/A | Bb Bdim7 | F/C   C6 E7/D C7/E | F C7 |


[Verse A]
F                                |  Dm  |  Dm     Dm/C |
   Love letters straight from your heart
Bb            C           F
   Keep us so near while apart
Bm7-5       E7          Am
   I'm not alone in the night
Am7-5         D7           Gm      | C   C6 E7/D C7/E |
   When I can have all the love you write


[Verse B]
F                  |  Dm  |  Dm     Dm/C |
   I memorize ev'ry line
Bb            C7            F
   I kiss the name that you sign
Bb              Bbm          F/A                 Abdim7
   And darling, then I read again right from the start
Gm              C                  F      | C   C6 E7/D C7/E |
   Love letters straight from your heart


[Verse B]
F                  |  Dm  |  Dm     Dm/C |
   I memorize ev'ry line
Bb            C7            F
   I kiss the name that you sign
Bb              Bbm          F/A                 Abdim7
   And darling, then I read again right from the start
Gm              C                 [ F ]
   Love letters straight from your heart


[Coda]
| F   F Gm F/A | Bb Bdim7 | F/C   C6 E7/D C7/E | F

Suggest correction
Give kudos to tab author, rate the tab!
1 2 3 4 5
comments
print report bad tab
guest
You may want to rate the tab now too:
select rating
Wanna post a correction for this tab? Suggest correction