Oops, an error
Loading. Please wait.

Love Me Tender Bass Tab

version 1
version 1

Whole song

Interactive

28,348 views 33 this week
2 commentsread comments
1 2 3 4 5
x 4
add to favorites
launch autoscroll
font size
0
reset
guitar tuner
Autoscroll
slow
fast
+/-
esc
set tempo
stop
Help us to improve Ultimate-Guitar.com Take our survey!
×
#----------------------------------PLEASE NOTE---------------------------------#
#This file is the author's own work and represents their interpretation of the #
#song. You may only use this file for private study, scholarship, or research. #
#------------------------------------------------------------------------------##
From: zdxc0d@amoco.com (David Crowson)

Aha!, I've just learnt this for the bass, so here'tis

Love Me Tender - Elvis Presley.

E---3------------------------
A----3-2-3----0----3-2-0-2-3-
D-----------0---0------------
G----------------------------

E---3------------------------
A----3-2-3----0----3-2-0-2-3-
D-----------0---0------------
G----------------------------

E--------------------------------------
A------------------------------3-------
D-----------2-2-2--2-2-2---2-0---0--2--
G--------------------------------------


E--------------------------------------
A----------------------0----3-2-----3--
D-----------2-2-3--2-0---0------2-0----
G--------------------------------------

Have fun, and give it some slap ;-)
Suggest correction
comments
print report bad tab
2 comments total.
0 reply
GrischkaBass 136 Aug 21, 2014 09:40 AM

G----------------------------
D-----------0---0------------
A----3-2-3----0----3-2-0-2-3-
E---3------------------------ 2x

E--------------------------------------
A-----------2-2-2--2-2-2---2-0---0--2--
D------------------------------3-------
G--------------------------------------

E--------------------------------------
A-----------2-2-3--2-0---0------2-0----
D----------------------0----3-2-----3--
G--------------------------------------

0 reply
GrischkaBass 136 Aug 21, 2014 09:56 AM

^how they should be tabbed, but besides, there is no bass in it one should write one. But if one has to play the singing part on the bass (oh my goodnes), then please play it in the right key as this (besides, the timing is mixed up too, but I won't correct that):

G----------------------------
D-----------2---2------------
A----5-4-5----2----5-4-2-4-5-
E---5------------------------ 2x

E--------------------------------------
A----------4-4-4--4-4-4---4-2----2--4--
D------------------------------5-------
G--------------------------------------

E--------------------------------------
A-----------4-4-5--4-2---2------4-2----
D----------------------2----5-4-----5--
G--------------------------------------

guest
You may want to rate the tab now too:
select rating
Wanna post a correction for this tab? Suggest correction