Oops, an error
Loading. Please wait.

She Thinks I Still Care chords

2,063 views 27 this week
no commentswrite comment
1 2 3 4 5
x 10
add to favorites
×
Save as Personal and add changes to this tab that will be seen only by you. Learn more ›
×
You can save this tab as Personal to edit and correct it or add notes. All changes will be seen only by you. Learn more »
launch autoscroll
font size
0
reset
transpose
0
reset
simplify chords
display chords
guitar tuner
edit
Autoscroll
slow
fast
+/-
esc
set tempo
stop
Author
Difficulty
maguri [tm] 31,244
intermediate
About this tab version
Complete and well-aligned chords for the whole song / tab for the intro / capo 3rd fret. Was this info helpful? Yes No
Strumming
There is no strumming pattern for this song yet. and get +5 IQ
---------------------------------------------------------------------------
             She Thinks I Still Care – Elvis Presley
---------------------------------------------------------------------------
Tabbed by: maguri
Tuning: Standard

Elvis Presley 
She Thinks I Still Care (1976)
(Dickey Lee Lipscomb)

From: "Moody Blue"

---------------------------------------------------------------------------

capo: 3rd fret
play: G
key: Bb

for original chords transpose this tab +3

---------------------------------------------------------------------------

INTRO

Don't really know how to transcribe this. The bends go up two semi-tones.
One probably needs a light set of strings. Or maybe there is some other 
country technique at work that I don't know about. Comments and corrections 
are highly welcome!

original key (without capo)
                                   Bb
  1   +   2   +   3   +   4   +    1   +   2   +   3   +   4   +    
e|--------------------------------|--------------------------------|
B|--------------------------------|--------------------------------|
G|--------------------------------|--------------------------------|
D|--------------------------------|--------------------------------|
A|----------------------------1---b3---------br3---1---------------|
E|------------------------1h3---1-|-----------------------b3—br3---|
  F                                Bb                               Bb 
  1   +   2   +   3   +   4   +    1   +   2   +   3   +   4   +    
e|--------------------------------|--------------------------------|
B|--------------------------------|--------------------------------|
G|--------------------------------|--------------------------------|
D|--------------------3---3-------|--------------------3---3-------|
A|----------------3b---b3—-b3—3br-|1---------------3b---b3—-b3—3br-|1
E|1-------------------------------|--------------------------------|


This is not how it's played. I just used slides instead of the bendings.
I think this makes it a little clearer.
                                  Bb
  1   +   2   +   3   +   4   +    1   +   2   +   3   +   4   +    
e|--------------------------------|--------------------------------|
B|--------------------------------|--------------------------------|
G|--------------------------------|--------------------------------|
D|--------------------------------|--------------------------------|
A|----------------------------1---/5-----------5\3--1--------------|
E|------------------------1h3---1-|-----------------------/5—---5\3|
  F                                Bb                               Bb 
  1   +   2   +   3   +   4   +    1   +   2   +   3   +   4   +    
e|--------------------------------|--------------------------------|
B|--------------------------------|--------------------------------|
G|--------------------------------|--------------------------------|
D|--------------------3---3-------|--------------------3---3-------|
A|----------------3/5---5—--5/3---|1---------------3/5---5—--5/3---|1
E|1-------------------------------|--------------------------------|

---------------------------------------------------------------------------


INTRO
| G | D | G | % |


VERSE
    G              C               G
Oh, just because I asked a friend about her
G              D                  G
Just because I spoke her name somewhere
       G                G7           C
Just because I rang her number by mistake today
C/B C/A   G          D          G
You know, she thinks I, I still care


VERSE
    G              C                  G
And just because I haunt the same old places
         G            D           G
With her memory I will linger everywhere
       G                 G7          C
Just because I’m not the happy guy I used to be
     C/B C/A   G          D          G
Lord you know, she thinks I still care


MIDDLE 8
      C                               G
Well, if she’s happy thinking I still need her
      A7                              D
Yeah, let that silly notion bring her cheer
    C                        G
Oh, how could she ever be so foolish
        A7                                D
Tell me where did she get, Lord, such an idea


VERSE
G              C               G
Just because I asked a friend about her
         G              D                  G
You know just because I spoke her name somewhere
       G              G7                  C
Just because, Lord, I saw her and went to pieces
     C/B C/A   G          D          G
Lord you know, she thinks I still care


OUTRO
      G          D       G
Lord, she thinks I still care
               G          D       G
Lord you know, she thinks I still care
         G          D       G
Oh Lord, she thinks I still care

(repeat and fade)
Suggest correction
Creating personal tab
Creating personal tab
You can edit any tab online and save it as your Personal.

You can edit, replace or remove any tab part or add personal notes – all changes will be seen only by you.

Personal tabs can be accessed anytime from any device, even offline.
Learn more »
comments
print report bad tab
guest
You may want to rate the tab now too:
select rating
Wanna post a correction for this tab? Suggest correction