Oops, an error
Loading. Please wait.

Suspicious Minds Tab

version 1
version 1

Whole song

Interactive

64,553 views 24 this week
3 commentsread comments
1 2 3 4 5
x 6
add to favorites
launch autoscroll
font size
0
reset
how to read this tab
guitar tuner
Autoscroll
slow
fast
+/-
esc
set tempo
stop
Help us to improve Ultimate-Guitar.com Take our survey!
×
Author
suspicious minds tab by elvis presley


|-3--0--2--0--3-----|
|-0--1--3--1--0-----|
|-0--0--2--0--0-----|
|-0--2--0--2--0-----|
|-2--3-----3--2-----|
|-3-----------3-----|

|-3--0--2--0--2-0-3---|
|-0--1--3--1--3-1-0---|
|-0--0--2--0--2-0-0---|
|-0--2--0--2--0-2-0---|
|-2--3-----3----3-2---|
|-3---------------3---|

|-0--3--2--0--3--2--0--2------|
|-1--0--3--1--0--3--1--3------|
|-0--0--4--0--0--4--0--2------|
|-2--0--4--2--0--4--2--0------|
|-3--2--2--3--2--2--3---------|
|----3--------3---------------|

|-3--0--2--0--3-----|
|-0--1--3--1--0-----|
|-0--0--2--0--0-----|
|-0--2--0--2--0-----|
|-2--3-----3--2-----|
|-3-----------3-----|

|-3--0--2--0--2-0-3---|
|-0--1--3--1--3-1-0---|
|-0--0--2--0--2-0-0---|
|-0--2--0--2--0-2-0---|
|-2--3-----3----3-2---|
|-3---------------3---|

|-0--3--2--0--3--2--0--2------|
|-1--0--3--1--0--3--1--3------|
|-0--0--4--0--0--4--0--2------|
|-2--0--4--2--0--4--2--0------|
|-3--2--2--3--2--2--3---------|
|----3--------3---------------|


 steve ,,   pompom020366@hotmail.com   pompom@sympatico.ca









Suggest correction
comments
print report bad tab
3 comments total.
+2 reply
radojka 10 Apr 17, 2008 07:43 AM

exelent!!! a retardet baby could do better!!!

-1 reply
mattweller16 10 Oct 15, 2011 05:36 PM

and spell better

0 reply
FL_Bob2002 500 Oct 21, 2014 10:06 AM

I didnt know chords were called tab's. I was looking for the notes of the song!

guest
You may want to rate the tab now too:
select rating
Wanna post a correction for this tab? Suggest correction