Oops, an error
Loading. Please wait.

The Wonder Of You bass

version 1
version 1

Whole song

Interactive

643 views 24 this week
no commentswrite comment
1 2 3 4 5
2 more votes to show rating
add to favorites
×
Save as Personal and add changes to this tab that will be seen only by you. Learn more ›
×
You can save this tab as Personal to edit and correct it or add notes. All changes will be seen only by you. Learn more »
launch autoscroll
font size
0
reset
guitar tuner
edit
Autoscroll
slow
fast
+/-
esc
set tempo
stop
Author
The Wonder Of You
Elvis Recorded this live in Las Vegas at The International Hotel
Reached number 1 in UK 1970. Tab by bass50611. Welcome to my
Tab and how I see this song, more as simpler version than the 
Original bass line. Comments at bass254@btinternet.com 

Intro: 
G|------------------------7--9---9-7---------------------
D|------4--5---5--5--4--------------9-7---5---4----------
A|-5--7-------5--------7-----------------5-----7-6-5---5-
E|-------------------------------------------------------

Verse:                            (Play This x2)
G|---------------------------------------------
D|-5---5--4-------------------7--------------4-
A|----5-----7----7---7-5-----7----7-5---5--7---
E|--------------7-------7-5--------------------

Chorus 1:                         .    .
G|-----------4--------------------------------------
D|-5---------------------------4--5----7------------
A|--------2----2-3--3--5--5--7--------------4-5---5-
E|---3---3--------------------------------5---------

G|------------------------------
D|----------------------------4-
A|-2-0------2--2--3--3--5--5-7--
E|----3--3----------------------

Repeat Verse: (x2)

Chorus 2:                         .    .   .      .
G|-----------4--------------------------------------
D|-5---------------------------4--5----7------------
A|--------2----2-3--3--5--5--7----------------7-6-5-
E|---3---3---------------------------------5--------

G|------------------------
D|-5--5------7--7-------4-
A|------7--7------5--5-7--
E|------------------------
 
Solo: (Play As A Walking Bass)
G|-----------------------------------------------4--7--4---------
D|-5---5--4----------------------5----------4--5------------4--7-
A|----5-----7--5--4--------4--7-----5--5--7---------------7------
E|-------------------7--5----------------------------------------

G|---------------------------
D|--------------4------------
A|---------4--7----5--3--2---
E|-9-8-6-5-----------------5-

Outro:                                   .     .
G|-----------------------------------------------------------------
D|------------------------------------4--5-----7-------------------
A|----------2--2-2---2-3--3---5--5--7-------------------5--5--5--5-
E|-3--3-3--3-----------------------------------------5-5-----------

                           (End)
G|---------------------------
D|-------------------------5-
A|------------3--3---6--6----
E|-3--3--3--3----------------


            
            
Suggest correction
Creating personal tab
Creating personal tab
You can edit any tab online and save it as your Personal.

You can edit, replace or remove any tab part or add personal notes – all changes will be seen only by you.

Personal tabs can be accessed anytime from any device, even offline.
Learn more »
Give kudos to tab author, rate the tab!
1 2 3 4 5
comments
print report bad tab
guest
You may want to rate the tab now too:
select rating
Wanna post a correction for this tab? Suggest correction