Oops, an error
Loading. Please wait.

This Is The Story Chords

16 views 1 this week
no commentswrite comment
1 2 3 4 5
2 more votes to show rating
add to favorites
launch autoscroll
font size
0
reset
transpose
0
reset
simplify chords
display chords
guitar tuner
Autoscroll
slow
fast
+/-
esc
set tempo
stop
Help us to improve Ultimate-Guitar.com Take our survey!
×
Author
Difficulty
maguri [tm] 27,055
intermediate
About this tab version
Complete and well-aligned chords / suggestions for voicings of special chords / tab for instrumental break. Was this info helpful? Yes No
---------------------------------------------------------------------------
          This is the Story – Elvis Presley
---------------------------------------------------------------------------
Tabbed by: maguri
Tuning: Standard

Elvis Presley
This is the Story (1969)
(Calvin Arnold, Geoff Morrow, David Martin)

From: "From Memphis to Vegas – From Vegas to Memphis (Back in Memphis)"

---------------------------------------------------------------------------

[LINK]
 [ A ]
  1 + 2 + 3 + 4 + 5 + 6 + 1 + 2 + 3 + 4 + 5 + 6 +  
e|-----------------------|------------------------|
B|-----------------------|----------------0---1---|
G|-----------------------|--------1---2-----------|
D|----------------0---1--|2---4-------------------|
A|0---2---3---4----------|------------------------|
E|-----------------------|------------------------|

---------------------------------------------------------------------------
CHORDS

          E-A-D-G-B-e
Faug      1-x-3-2-2-1
A/E       0-x-2-2-2-0

---------------------------------------------------------------------------
[Intro]
| A | % | % | % |



[Verse]
A                E
 I play the song, it was our own
F                        C
 Your photograph's by my side
A                  D
 I know I can't forget you
B                E
 So I don't even try


[Verse]
A                E
 The note you left is in my hand
F                        C
 I read again what you say
A                  D
 You're sorry but you love him
B                E
 And you've both gone away


[Chorus
            A          D
This is the story of a man
      C#                F#m
Whose world has fallen apart
Faug         A/E
And it's the story
        E         |  A  |  %  |
That is breaking my heart
                  (break)


[Verse]
A                E
 An open fire, our favorite chair
F                        C
 I get a book from the shelf
A                  D
 But the words I am reading
B                E
 Could apply to myself


[Chorus
            A          D
This is the story of a man
      C#                F#m
Whose world has fallen apart
Faug         A/E
And it's the story
        E         |  A  |  %  |
That is breaking my heart
                  (LINK)


[Outro]
         A/E           E          |  A  |  %  |
It's the story that is breaking my heart
                                  (LINK)
              A/E           E          |  A  |  %  |
Yes, it's the story that is breaking my heart
                                       (LINK)

(repeat and fade)
Suggest correction
Give kudos to tab author, rate the tab!
1 2 3 4 5
comments
print report bad tab
guest
You may want to rate the tab now too:
select rating
Wanna post a correction for this tab? Suggest correction