Oops, an error
Loading. Please wait.

Wonderful World Chords

version 2
version 2

Whole song

2,297 views 6 this week
no commentswrite comment
1 2 3 4 5
excellent!
x 2
add to favorites
launch autoscroll
font size
0
reset
transpose
0
reset
simplify chords
- display chords -
guitar tuner
Tab Pro tools
  • play this tab
  • loop segment
  • change instrument
  • show fretboard
  • metronome
Autoscroll
slow
fast
+/-
esc
set tempo
stop
Contributor
Difficulty
intermediate
---------------------------------------------------------------------------
                Wonderful World - Elvis Presley
---------------------------------------------------------------------------
Tabbed by: maguri
Tuning: Standard

Elvis Presley
Wonderful World (1968)
(Guy Fletcher/Doug Flett)

From the movie "Live A Litte, Love A Little"
First released on "Elvis sings Flaming Star"

---------------------------------------------------------------------------
CHORDS

          e-B-G-D-A-E
A7/9      0-0-0-2-0-x
D/F#      x-3-2-0-x-2
Dmaj7     2-2-2-0-x-x
D6        2-0-2-0-x-x
G/B       3-0-0-0-2-x
Aadd9     x-2-4-2-0-x
Aadd9/G   x-2-4-2-x-3
Bm/A      2-3-4-4-0-x

---------------------------------------------------------------------------
Capo 3rd fret

INTRO

  A7/9
e|3-----2-----|0-----------|3-----2-----|0-----------|
B|0-----------|--------0-3-|0-----------|------------|
G|------2-----|0-----2-----|------2-----|0-----------|
D|------------|------------|------------|------------|
A|0-----0-----|0-----------|0-----0-----|0-----------|
E|------------|------------|------------|------------|

INTERLUDE
  D    Dmaj7   D6           D    Dmaj7   D6
e|2-----2-----|2-----------|2-----2-----|2-----------|
B|3-----2-----|0-----------|3-----2-----|0-----------|
G|2-----2-----|2-----------|2-----2-----|2-----------|
D|0-----0-----|0-----------|0-----0-----|0-----------|
A|------------|------0-2-4-|------------|------------|
E|------------|------------|------------|------------|

CODA
  D    Dmaj7   Em    [A]    D    Dmaj7   Em    [A]
e|2-----2-----|0-----------|2-----2-----|0-----------|
B|3-----2-----|0-----------|3-----2-----|0-----------|
G|2-----2-----|0-----------|2-----2-----|0-----------|
D|0-----0-----|2-----------|0-----0-----|2-----------|
A|------------|2-----0-2-4-|------------|2-----0-2-4-|
E|------------|0-----------|------------|0-----------|

---------------------------------------------------------------------------

Capo 3rd fret

INTRO
|3/4 A7/9 | % | % | % | % | % | % | % |

A    G  D/F#  Em 
This is a     wonderful day 
        A                      D     Dmaj7  D6
It's as bright as a day's ever been
D          Em                     A                   D    Dmaj7  D7
There is a big yellow sun looking down on a wonderful scene 

          G        Gm
Up in the blue sky birds fly 
    D        Dmaj7   D7
And sing our cares away 
           G           Gm
And out of each throat each note 
E                  A
Greets a wonderful day 

A     G  D/F#  Em 
There is the   sound of a symphony 
A                      D     Dmaj7  D6
  Carried along on the breeze 
D        Em                     A                           D    Dmaj7  D7
Even the flowers are swaying in time with the leaves on the trees 

          G     G/B   Aadd9       Aadd9/G
Heaven is found right here on the earth 
      F#m    Bm        Bm        Bm/A        G
It surrounds us in the wonderful things all around 
        Em                               A         [D] 
In this wonderful, wonderful, wonderful, wonderful world


INTERLUDE
| D | Dmaj7 | D6 | % |
| D | Dmaj7 | D6 | % |


A    G  D/F#  Em 
This is a     wonderful day 
        A                      D     Dmaj7  D6
It's as bright as a day's ever been
D             Em                     A                   D    Dmaj7  D7
And there's a big yellow sun looking down on a wonderful scene 

          G     G/B   Aadd9       Aadd9/G
Heaven is found right here on the earth 
      F#m    Bm        Bm        Bm/A        G
It surrounds us in the wonderful things all around 
        Em                               A         [D]
In this wonderful, wonderful, wonderful, wonderful world 

D     Dmaj7   Em  [A]       D     Dmaj7   Em        [A]       D
                  Wonderful world,          'n this wonderful world 
D     Dmaj7   Em  [A]       D     Dmaj7   Em  [A]        
                  Wonderful world,            wonderful world 

[FADE]
comments
We did not receive enough feedback on this tab! Please rate:
print report bad tab
1 2 3 4 5
I want to post or [tab]
guest
You may want to rate the tab now too:
select rating
Please do not post tabs as comments. Select "correction" instead!