Oops, an error
Loading. Please wait.

Filthy tab

version 2
version 2

Whole song

by Elysia
243 views 1 this week
no commentswrite comment
1 2 3 4 5
3 more votes to show rating
add to favorites
×
Save as Personal and add changes to this tab that will be seen only by you. Learn more ›
×
You can save this tab as Personal to edit and correct it or add notes. All changes will be seen only by you. Learn more »
launch autoscroll
font size
0
reset
how to read this tab
guitar tuner
edit
Autoscroll
slow
fast
+/-
esc
set tempo
stop
Author
Difficulty
Track 1
              Q    S S E  S S E  Q       S S E  S S E  Q    S S E   
C#||-------|--------------------------|----------------------------|
G#||-------|--9------------------9----|----------------9-----------|
E ||-------|--7------------------7----|----------------7-----------|
B ||-------|--6------------------6----|----------------6-----------|
F#||-------|--------------------------|----------------------------|
B ||-------|-------0-0-0--0-0-0-------|--0-0-0--0-0-0-------0-0-0--|


  S S E  Q      Q      Q       Q    S S E  S S E  Q     
----------------------------|--------------------------|
---------------------<>4----|--9------------------9----|
--------------<>4-----------|--7------------------7----|
----------------------------|--6------------------6----|
----------------------------|--------------------------|
--0-0-0--6------------------|-------0-0-0--0-0-0-------|


                PM PM PM PM PM PM    PM PM PM PM PM PM PM PM PM PM PM PM  
  S S E  S S E  S  S  E  S  S  E     S  S  E  S  S  E  S  S  E  S  S  E   
----------------------------------|--------------------------------------|
----------------------------------|--------------------------------------|
----------------------------------|--------------------------------------|
----------------------------------|--------------------------------------|
----------------------------------|--------------------------------------|
--0-0-0--0-0-0--9--9--9--9--9--9--|--9--9--9--8--8--8--8--8--8--8--8--8--|


  Q    S S E  S S E  Q       S S E  S S E  Q    S S E   
--------------------------|----------------------------|
--9------------------9----|----------------9-----------|
--7------------------7----|----------------7-----------|
--6------------------6----|----------------6-----------|
--------------------------|----------------------------|
-------0-0-0--0-0-0-------|--0-0-0--0-0-0-------0-0-0--|


  S S E  Q      Q      Q       Q    S S E  S S E  Q     
----------------------------|--------------------------|
---------------------<>4----|--9------------------9----|
--------------<>4-----------|--7------------------7----|
----------------------------|--6------------------6----|
----------------------------|--------------------------|
--0-0-0--6------------------|-------0-0-0--0-0-0-------|


                PM PM PM PM PM PM    PM PM PM PM PM PM PM PM PM PM PM PM  
  S S E  S S E  S  S  E  S  S  E     S  S  E  S  S  E  S  S  E  S  S  E   
----------------------------------|--------------------------------------|
----------------------------------|--------------------------------------|
----------------------------------|--------------------------------------|
----------------------------------|--------------------------------------|
----------------------------------|--------------------------------------|
--0-0-0--0-0-0--9--9--9--9--9--9--|--9--9--9--8--8--8--8--8--8--8--8--8--|


  W                   W                   W                   W                 
-------------------|-------------------|-------------------|-------------------|
--9----------------|--L----------------|--L----------------|--L----------------|
--7----------------|--L----------------|--L----------------|--L----------------|
--6----------------|--L----------------|--L----------------|--L----------------|
-------------------|-------------------|-------------------|-------------------|
-------------------|-------------------|-------------------|-------------------|


  W                   W                   W                 
-------------------|-------------------|-------------------|
-------------------|-------------------|-------------------|
--L----------------|--L----------------|--L----------------|
--L----------------|--L----------------|--L----------------|
--L----------------|--L----------------|--L----------------|
-------------------|-------------------|-------------------|


  Q    Q    Q    Q       W                   Q    E  E  E  E  Q     
----------------------|-------------------|------------------------|
----------------------|-------------------|------------------------|
----------------------|-------------------|------------------------|
--0-------------------|-------------------|------------------------|
--0-------------------|-------------------|-------5--6--4--5-------|
--0-------------------|-------------------|--6----------------6----|


  E  E  E  E  E  E  E  E     Q    E  E  E  E  Q     
--------------------------|------------------------|
--------------------------|------------------------|
--------------------------|------------------------|
--------------7--6--------|------------------------|
--5--6--4--5--------7--5--|-------5--6--4--5-------|
--------------------------|--6----------------6----|


  S S E  S S E  S S E  S S E     Q    E  E  E  E  Q     
------------------------------|------------------------|
------------------------------|------------------------|
------------------------------|------------------------|
------------------------------|------------------------|
------------------------------|-------5--6--4--5-------|
--9-9-9--9-9-9--8-8-8--8-8-8--|--6----------------6----|


                                                           PM   PM           
  E  E  E  E  E  E  E  E     Q    E  E  E  E  Q       Q    Q    Q      Q     
--------------------------|------------------------|------------------------|
--------------------------|------------------------|------------------------|
--------------------------|------------------------|------------------------|
--------------7--6--------|------------------------|------------------------|
--5--6--4--5--------7--5--|-------5--6--4--5-------|--7----6----5----<>5----|
--------------------------|--6----------------6----|--7----6----5-----------|


  Q    E  E  E  E  Q       E  E  E  E  E  E  E  E     Q    E  E  E  E  Q     
------------------------|--------------------------|------------------------|
------------------------|--------------------------|------------------------|
------------------------|--------------------------|------------------------|
------------------------|--------------7--6--------|------------------------|
-------5--6--4--5-------|--5--6--4--5--------7--5--|-------5--6--4--5-------|
--6----------------6----|--------------------------|--6----------------6----|


  S S E  S S E  S S E  S S E     Q    E  E  E  E  Q     
------------------------------|------------------------|
------------------------------|------------------------|
------------------------------|------------------------|
------------------------------|------------------------|
------------------------------|-------5--6--4--5-------|
--9-9-9--9-9-9--8-8-8--8-8-8--|--6----------------6----|


                                                           PM   PM           
  E  E  E  E  E  E  E  E     Q    E  E  E  E  Q       Q    Q    Q      Q     
--------------------------|------------------------|------------------------|
--------------------------|------------------------|------------------------|
--------------------------|------------------------|------------------------|
--------------7--6--------|------------------------|------------------------|
--5--6--4--5--------7--5--|-------5--6--4--5-------|--7----6----5----<>5----|
--------------------------|--6----------------6----|--7----6----5-----------|


  S S E  S S E  S S E  S S E     S S E  S S E  E  E  E  E   
------------------------------|----------------------------|
------------------------------|----------------------------|
------------------------------|----------------------------|
------------------------------|----------------------------|
--6-6-6--7-7-7--5-5-5--6-6-6--|--4-4-4--5-5-5--7--6--5--4--|
--6-6-6--7-7-7--5-5-5--6-6-6--|--4-4-4--5-5-5--7--6--5--4--|


  S S E  S S E  S S E  S S E     S S E  S S E  E  E  E  E   
------------------------------|----------------------------|
------------------------------|----------------------------|
------------------------------|----------------------------|
------------------------------|----------------------------|
--6-6-6--7-7-7--5-5-5--6-6-6--|--4-4-4--5-5-3--7--6--5--4--|
--6-6-6--7-7-7--5-5-5--6-6-6--|--4-4-4--5-5-3--7--6--5--4--|


  S S E  S S E  S S E  S S E     S S E  S S E  E  E  E  E   
------------------------------|----------------------------|
------------------------------|----------------------------|
------------------------------|----------------------------|
------------------------------|----------------------------|
--6-6-6--7-7-7--5-5-5--6-6-6--|--4-4-4--5-5-5--7--6--5--4--|
--6-6-6--7-7-7--5-5-5--6-6-6--|--4-4-4--5-5-5--7--6--5--4--|


  S S E  S S E  S S E  S S E     S S E  S S E  E  E  E  E   
------------------------------|----------------------------|
------------------------------|----------------------------|
------------------------------|----------------------------|
------------------------------|----------------------------|
--6-6-6--7-7-7--5-5-5--6-6-6--|--4-4-4--5-5-3--7--6--5--4--|
--6-6-6--7-7-7--5-5-5--6-6-6--|--4-4-4--5-5-3--7--6--5--4--|


  S S E  S S E  S S E  S S E     S S E  S S E  E  E  E  E   
------------------------------|----------------------------|
------------------------------|----------------------------|
------------------------------|----------------------------|
------------------------------|----------------------------|
--6-6-6--7-7-7--5-5-5--6-6-6--|--4-4-4--5-5-5--7--6--5--4--|
--6-6-6--7-7-7--5-5-5--6-6-6--|--4-4-4--5-5-5--7--6--5--4--|


  S S E  S S E  S S E  S S E     S S E  S S E  E  E  E  E   
------------------------------|----------------------------|
------------------------------|----------------------------|
------------------------------|----------------------------|
------------------------------|----------------------------|
--6-6-6--7-7-7--5-5-5--6-6-6--|--4-4-4--5-5-3--7--6--5--4--|
--6-6-6--7-7-7--5-5-5--6-6-6--|--4-4-4--5-5-3--7--6--5--4--|


  S S E  S S E  S S E  S S E     S S E  S S E  E  E  E  E   
------------------------------|----------------------------|
------------------------------|----------------------------|
------------------------------|----------------------------|
------------------------------|----------------------------|
--6-6-6--7-7-7--5-5-5--6-6-6--|--4-4-4--5-5-5--7--6--5--4--|
--6-6-6--7-7-7--5-5-5--6-6-6--|--4-4-4--5-5-5--7--6--5--4--|


  S S E  S S E  S S E  S S E     S S E  S S E  E  E  E  E   
------------------------------|----------------------------|
------------------------------|----------------------------|
------------------------------|----------------------------|
------------------------------|----------------------------|
--6-6-6--7-7-7--5-5-5--6-6-6--|--4-4-4--5-5-3--7--6--5--4--|
--6-6-6--7-7-7--5-5-5--6-6-6--|--4-4-4--5-5-3--7--6--5--4--|


  S S E  S S E  S S E  S S E     S S E  S S E  E  E  E  E   
------------------------------|----------------------------|
------------------------------|----------------------------|
------------------------------|----------------------------|
------------------------------|----------------------------|
--6-6-6--7-7-7--5-5-5--6-6-6--|--4-4-4--5-5-5--7--6--5--4--|
--6-6-6--7-7-7--5-5-5--6-6-6--|--4-4-4--5-5-5--7--6--5--4--|


  S S E  S S E  S S E  S S E     S S E  S S E  E  E  E  E   
------------------------------|----------------------------|
------------------------------|----------------------------|
------------------------------|----------------------------|
------------------------------|----------------------------|
--6-6-6--7-7-7--5-5-5--6-6-6--|--4-4-4--5-5-3--7--6--5--4--|
--6-6-6--7-7-7--5-5-5--6-6-6--|--4-4-4--5-5-3--7--6--5--4--|


  S S E  S S E  S S E  S S E     S S E  S S E  E  E  E  E   
------------------------------|----------------------------|
------------------------------|----------------------------|
------------------------------|----------------------------|
------------------------------|----------------------------|
--6-6-6--7-7-7--5-5-5--6-6-6--|--4-4-4--5-5-5--7--6--5--4--|
--6-6-6--7-7-7--5-5-5--6-6-6--|--4-4-4--5-5-5--7--6--5--4--|


  S S E  S S E  S S E  S S E     S S E  S S E  E  E  E  E   
------------------------------|----------------------------|
------------------------------|----------------------------|
------------------------------|----------------------------|
------------------------------|----------------------------|
--6-6-6--7-7-7--5-5-5--6-6-6--|--4-4-4--5-5-3--7--6--5--4--|
--6-6-6--7-7-7--5-5-5--6-6-6--|--4-4-4--5-5-3--7--6--5--4--|


  E  E  E  E  E  E  E  E     E  E  E  E  E  E  S S S S  
--------------------------|----------------------2-5-2-|
--------------------------|--------------------5-------|
--------------------------|--------------2--5----------|
--------------------------|----------------------------|
--------------------------|----------------------------|
--7--6--5--4--5--6--5--4--|--7--6--5--4----------------|


  E  E  E  E  E  E  E  E     E  E  E  E  E  E  S S S S  
--------------------------|----------------------2-5-2-|
--------------------------|--------------------5-------|
--------------------------|--------------2--5----------|
--------------------------|----------------------------|
--------------------------|----------------------------|
--7--6--5--4--5--6--5--4--|--7--6--5--4----------------|


  E  E  E  E  E  E  E  E     E  E  E  E  E  E  S S S S  
--------------------------|----------------------2-5-2-|
--------------------------|--------------------5-------|
--------------------------|--------------2--5----------|
--------------------------|----------------------------|
--------------------------|----------------------------|
--7--6--5--4--5--6--5--4--|--7--6--5--4----------------|


  E  E  E  E  E  E  E  E     E  E  E  E  E  E  S S S S    Q    Q    Q    Q     
--------------------------|----------------------2-5-2-|----------------------|
--------------------------|--------------------5-------|----------------------|
--------------------------|--------------2--5----------|----------------------|
--------------------------|----------------------------|--6-------------------|
--------------------------|----------------------------|--6----0----0----0----|
--7--6--5--4--5--6--5--4--|--7--6--5--4----------------|--6----0----0----0----|


  Q    Q    Q    Q       W                   W                 
----------------------|-------------------|-------------------|
----------------------|-------------------|-------------------|
----------------------|-------------------|-------------------|
----------------------|-------------------|-------------------|
-------0----0----0----|-------------------|-------------------|
-------0----0----0----|-------------------|-------------------|


  Q    Q    Q    Q       Q    Q    Q    Q      
----------------------|----------------------||
----------------------|----------------------||
----------------------|----------------------||
--6-------------------|----------------------||
--6----0----0----0----|-------0----0----0----||
--6----0----0----0----|-------0----0----0----||




Duration Legend
---------------
W - whole
H - half
Q - quarter
E - 8th
S - 16th
T - 32nd
X - 64th
. - note dotted
|-n-|  - n-tuplets


Tablature Legend
----------------
L - tied note
x - dead note
g - grace note
(n) - ghost note
> - accentuded note
NH - natural harmonic
AH - artificial harmonic
TH - tapped harmonic
SH - semi harmonic
PH - pitch harmonic
h - hammer on
p - pull off
b - bend
br - bendRelease
pb - preBend
pbr - preBendRelease
brb - bendReleaseBend
\n/ - tremolo bar dip
\n - tremolo bar dive
-/n - tremolo bar Release up
/n\ - tremolo bar inverted dip
/n - tremolo bar return
-\n - tremolo bar Release down
S - shift slide
s - legato slide
/ -  slide into from below or out of upwards
\ -  slide into from above or out of downwards
~ - vibrato
W - wide vibrato
tr - trill
TP - tremolo picking
T - tapping
S - slap
P - pop
< - fade in
^ - brush up
v - brush down

            
            
Suggest correction
Creating personal tab
Creating personal tab
You can edit any tab online and save it as your Personal.

You can edit, replace or remove any tab part or add personal notes – all changes will be seen only by you.

Personal tabs can be accessed anytime from any device, even offline.
Learn more »
Give kudos to tab author, rate the tab!
1 2 3 4 5
comments
print report bad tab
guest
You may want to rate the tab now too:
select rating
Wanna post a correction for this tab? Suggest correction