Oops, an error
Loading. Please wait.

Filthy tab

version 3
version 3

Whole song

by Elysia
352 views 3 this week
no commentswrite comment
1 2 3 4 5
3 more votes to show rating
add to favorites
×
Save as Personal and add changes to this tab that will be seen only by you. Learn more ›
×
You can save this tab as Personal to edit and correct it or add notes. All changes will be seen only by you. Learn more »
launch autoscroll
font size
0
reset
how to read this tab
guitar tuner
edit
Autoscroll
slow
fast
+/-
esc
set tempo
stop
Author
Difficulty
-------------------------------------------------------------------------------
                             FILTHY (Demo/Masochist) - ELYSIA
-------------------------------------------------------------------------------
Tabbed by: Mike (:

Tuning: drop B- B F# B E G# C#

Saw some mistakes in other tab so I fixed it up a little. Mine probably has alot of 
too but oh well.
Times might be off because I tabbed half Demo and half Masochist versions.

Comment/Rate Please.

:01
C#|-------------------------------------------------------------|
G#|-------------------------------------------------------------|
E |-12------------12----------12--------------------12*---------|
B |-11------------11----------11----------------11*-------------|
F#|-10------------10----------10------------10*-----------------|
B |----0-0-0-0-------0-0-0-0-----0-0-0-0------------------------|

C#|-----------------------------------------------------------------------------|
G#|-----------------------------------------------------------------------------|
E |-12------------12------------------------------------------------------------|
B |-11------------11------------------------------------------------------------|
F#|-10------------10------------------------------------------------------------|
B |----0-0-0-0-------0-0-0-0-----8-11-8-11-8-11------7-10-7-10-7-10-------------|

:07
C#|-------------------------------------------------------------|
G#|-------------------------------------------------------------|
E |-12------------12----------12--------------------12*---------|
B |-11------------11----------11----------------11*-------------|
F#|-10------------10----------10------------10*-----------------|
B |----0-0-0-0-------0-0-0-0-----0-0-0-0------------------------|

                                                           :13
C#|-----------------------------------------------------------------|--------------|
G#|-----------------------------------------------------------------|--------------|
E |-12------------12------------------------------------------------|--12~---------|
B |-11------------11------------------------------------------------|--11~----0x---|
F#|-10------------10------------------------------------------------|--10~----0x---|
B |----0-0-0-0-------0-0-0-0-----8-11-8-11-8-11------7-10-7-10-7-10-|---------0x---|

:20
C#|---------------------------------|-------------------------------------------|
G#|---------------------------------|-------------------------------------------|
E |---------------------------------|-------------------------------------------|
B |---------------------------5-4-3-|-------------------------------------------|
F#|-----4-5-3-4------4-5-3-4--------|-----4-5-3-4------2222-1111----------------|
B |-0-0----------0-0----------------|-0-0----------0-0--------------------------|

:24
C#|------------------------------------|---------------------------------------|
G#|------------------------------------|---------------------------------------|
E |------------------------------------|---------------------------------------|
B |-----------------------------5-4-3--|--------------6-5-3--------------------|
F#|-----4-5-3-4--------4-5-3-4---------|-----4-5-3-4--6-5-3-2*-----------------|
B |-0-0------------0-0-----------------|-0-0----------6-5-3--------------------|

:29
C#|---------------------------------|------------------------------------------|
G#|---------------------------------|------------------------------------------|
E |---------------------------------|------------------------------------------|
B |---------------------------5-4-3-|------------------------------------------|
F#|-----4-5-3-4------4-5-3-4--------|------4-5-3-4------2222-1111--------------|
B |-0-0----------0-0----------------|--0-0----------0-0------------------------|

C#|---------------------------------|------------------------------------------|
G#|---------------------------------|------------------------------------------|
E |---------------------------------|------------------------------------------|
B |---------------------------5-4-3-|--------------6-5-3-----------------------|
F#|-----4-5-3-4------4-5-3-4--------|-----4-5-3-4--6-5-3-2*--------------------|
B |-0-0-----------0-0---------------|-0-0----------6-5-3-----------------------|

:37
|--------------------------------|------------------------------------|
|--------------------------------|------------------------------------|
|--------------------------------|------------------------------------|
|---5-6--4-5--3-4-6543-----------|-5-6--4-5--3-4---3-4-3-2-5430-------|
|---5-6--4-5--3-4-6543-----------|-5-6--4-5--3-4---3-4-3-2-5430-------|
|---5-6--4-5--3-4-6543--------x3-|-5-6--4-5--3-4---3 4 3 2 5430-------|



:46
C#|---------------------------------------------------------------------------|
G#|---------------------------------------------------------------------------|
E |---------------------------------------------------------------------------|
B |-555-666-444-555-333-444-654-----------------------------------------------|
F#|-555-666-444-555-333-444-654-3*--------------------------------------------|
B |-555-666-444-555-333-444-654-----------------------------------------------|

C#|---------------------------------------------------------------------------|
G#|---------------------------------------------------------------------------|
E |---------------------------------------------------------------------------|
B |-555-666-444-555-333-444-3-4-3-2-543---------------------------------------|
F#|-555-666-444-555-333-444-3-4-3-2-543-2*------------------------------------|
B |-555-666-444-555-333-444-3-4-3-2-543---------------------------------------|
                                                                          x2


C#|---------------------------------------------------------------------------|
G#|---------------------------------------------------------------------------|
E |---------------------------------------------------------------------------|
B |-555-666-444-555-333-444-654-----------------------------------------------|
F#|-555-666-444-555-333-444-654-3*--------------------------------------------|
B |-555-666-444-555-333-444-654-----------------------------------------------|


C#|---------------------------------------------------------------------------|
G#|---------------------------------------------------------------------------|
E |---------------------------------------------------------------------------|
B |-555-666-444-555-333-444-3-4-3-2-543---------------------------------------|
F#|-555-666-444-555-333-444-3-4-3-2-543-2*------------------------------------|
B |-555-666-444-555-333-444-3-4-3-2-543------------------------------x3-------|


1:08
C#|---------------------------------------------------------------------------|
G#|---------------------12p9--------------------12p9--------------------------|
E |----------------7h10--------------------7h10-------------------------------|
B |---------------------------------------------------------------------------|
F#|-500000000000--------------500000000000------------------------------------|
B |-500000000000--------------500000000000----------------------------x2------|

1:17
C#|-------------------------------------------------------------------------------|
G#|-------------------------------------------------------------------------------|
E |-------------------------------------------------------------------------------|
B |-5--0-0-0---0-0-0--------------------------------------------------------------|
F#|-5--0-0-0---0-0-0--------------------------------------------------------------|
B |-5--0-0-0---0-0-0---x2---------------------------------------------------------|


1:26
C#|-------------------------------------|-------------------------------------|
G#|-------------------------------------|-------------------------------------|
E |-------------------------------------|-------------------------------------|
B |--0-0-0-0-0-0-0--0-0-0-0-0-0-0--0-0--|-0-0-0-0-0-0-0--0-0-0-0-0-0-0--0-0---|
F#|--0-0-0-0-0-0-0--0-0-0-0-0-0-0--0-0--|-0-0-0-0-0-0-0--0-0-0-0-0-0-0--0-0---|
B |--0-0-0-0-0-0-0--0-0-0-0-0-0-0--0-0--|-0-0-0-0-0-0-0--0-0-0-0-0-0-0--0-0---|

C#|-------------------------------------|-------------------------------------|
G#|-------------------------------------|-------------------------------------|
E |-------------------------------------|-------------------------------------|
B |--0-0-0-0-0-0-0--0-0-0-0-0-0-0--0-0--|-0-0-0-0-0-0-0--0-0-0-0-0-0-0--0-0---|
F#|--0-0-0-0-0-0-0--0-0-0-0-0-0-0--0-0--|-0-0-0-0-0-0-0--0-0-0-0-0-0-0--0-0---|
B |--0-0-0-0-0-0-0--0-0-0-0-0-0-0--0-0--|-0-0-0-0-0-0-0--0-0-0-0-0-0-0--0-0---|


1:42

C#|---------------------------------------------------------------------------|
G#|---------------------------------------------------------------------------|
E |---------------------------------------------------------------------------|
B |---------------------------------------------------------------------------|
F#|--------------------3h6p3--3h6p3--------------------------3h6p3--3h6p3-----|
B |--0-7-10-7-0-7-10-7------7-------7------0-7-10-7-0-7-10-7------7-------7---|


C#|---------------------------------------------------------------------------|
G#|----------------------------------------------------------10h13p10---------|
E |------------------------------------------------------9h11--------11-------|
B |-------------------------------------4h7-7h10p7--7h10----------------------|
F#|-------------------3h6p3--3h6p3--3h6-----------9---------------------------|
B |-0-7-10-7-0-7-10-7------7------7-------------------------------------------|


C#|---------------------------------------------------------------------------|
G#|---------------------------------------------------------------------------|
E |---------------------------------------------------------------------------|
B |---------------------------------------------------------------------------|
F#|--------------------3h6p3--3h6p3--------------------------3h6p3--3h6p3-----|
B |--0-7-10-7-0-7-10-7------7-------7------0-7-10-7-0-7-10-7------7-------7---|


C#|---------------------------------------------------------------------------|
G#|----------------------------------------------------------10h13p10---------|
E |------------------------------------------------------9h11--------11-------|
B |-------------------------------------4h7-7h10p7--7h10----------------------|
F#|-------------------3h6p3--3h6p3--3h6-----------9---------------------------|
B |-0-7-10-7-0-7-10-7------7------7-------------------------------------------|


C#|---------------------------------------------------------------------------|
G#|---------------------------------------------------------------------------|
E |---------------------------------------------------------------------------|
B |---------------------------------------------------------------------------|
F#|--------------------3h6p3--3h6p3--------------------------3h6p3--3h6p3-----|
B |--0-7-10-7-0-7-10-7------7-------7------0-7-10-7-0-7-10-7------7-------7---|


C#|---------------------------------------------------------------------------|
G#|---------------------------------------------------------------------------|
E |---------------------------------------------------------------------------|
B |---------------------------------------------------------------------------|
F#|--------------------3h6p3--3h6p3-----------------------------0-0-0--0-0-0--|
B |--0-7-10-7-0-7-10-7------7-------7------0-7-10-7-0-7-10-7----0-0-0--0-0-0--|

2:13
C#|---------------------------------------------------------------------------|
G#|---------------------------------------------------------------------------|
E |---------------------------------------------------------------------------|
B |-----------5-------------------------------------5-------------------------|
F#|-0-0-0-0-0-5--0-0-0-0---0-0-0-0--------0-0-0-0-0-5-0-0-0-0--0-0-0-0--------|
B |-0-0-0-0-0-5--0-0-0-0---0-0-0-0--------0-0-0-0-0-5-0-0-0-0--0-0-0-0--------|x4


C#|---------------------------------------------------------------------------|
G#|---------------------------------------------------------------------------|
E |---------------------------------------------------------------------------|
B |-----------5-------------------------0~-0~~--------------------------------|
F#|-0-0-0-0-0-5--0-0-0-0---0-0-0-0------0~-0~~--------------------------------|
B |-0-0-0-0-0-5--0-0-0-0---0-0-0-0------0~-0~~--------------------------------|

2:34
C#|---------------------------------------------------------------------------|
G#|---------------------------------------------------------------------------|
E |---------------------------------------------------------------------------|
B |-0--1--0--4--3--0-1-3------------------------------------------------------|
F#|-0--1--0--4--3--0-1-3-3*---------------------------------------------------|
B |-0--1--0--4--3--0-1-3------------------------------------------------------|x4

C#|----|----------------------------------------------------------------------|
G#|----|----------------------------------------------------------------------|
E |----|----------------------------------------------------------------------|
B |-0x-|-000-000---000-000---00--00-------------------------------------------|
F#|-0x-|-000-000---000-000---00--00-------------------------------------------|
B |-0x-|-000-000---000-000---00--00-------------------------------------------|
    .    ... ...   ... ...   ..  ..

| /  slide up
| \  slide down
| h  hammer-on
| p  pull-off
| ~  vibrato
| +  harmonic
| x  Mute note
===============================================================================
Suggest correction
Creating personal tab
Creating personal tab
You can edit any tab online and save it as your Personal.

You can edit, replace or remove any tab part or add personal notes – all changes will be seen only by you.

Personal tabs can be accessed anytime from any device, even offline.
Learn more »
Give kudos to tab author, rate the tab!
1 2 3 4 5
comments
print report bad tab
guest
You may want to rate the tab now too:
select rating
Wanna post a correction for this tab? Suggest correction