Oops, an error
Loading. Please wait.

Insane Acoustic tab

by Eman
535 views 1 this week
no commentswrite comment
1 2 3 4 5
3 more votes to show rating
add to favorites
×
Save as Personal and add changes to this tab that will be seen only by you. Learn more ›
×
You can save this tab as Personal to edit and correct it or add notes. All changes will be seen only by you. Learn more »
launch autoscroll
font size
0
reset
how to read this tab
guitar tuner
edit
Autoscroll
slow
fast
+/-
esc
set tempo
stop
Manca una parte in palm muted prima del primo ritornello che non sono proprio riuscito ad afferrare.
Non sono accurate al 100% ma sono una buona base.
Ascoltando la canzone ci si rende conto che le strofe sono arpeggiate.


[Intro]       

   Am             Fmaj        F#m7(b5)
e|-0--------0-------0------------0-------0----------------------------------------|
B|--1---------1-------1-----1-----1--------1--------------------------------------|
G|---2------------2-------2---2--------2------------------------------------------|
D|----2---2-----3-------4------------3-------3-2-0---0-2--------------------------|
A|-----0-------------------------------------------3-----3-2-0--------------------|
E|------0-------------------------------------------------------------------------|


[Verse]
 
Am
Da giorni non dormo,
                             Fmaj
parlo da solo, piango da solo,
                        F#m7(b5)
uccido i miei fantasmi,
                       Fmaj
parlano poco, giudican troppo
                  Am 
e san tutto di me!

Am                                Fmaj
Guardo lo specchio, conto le facce
                       F#m7(b5)
che cambian nei giorni,
                          Fmaj
chiedono cose che io non so
                   Am 
ma dovrei sapere se

Am                                 Fmaj
i miei occhi per tanto rimasti chiusi       
Am                                          
avessi aperto quando ancora ero in me 


(Play it just after Am while he's singing "ero in me")

e|---- ------------------------|
B|-----------------------------|
G|-----------------------------|
D|-----------------------------|
A|-------3-2-0-----------------|
E|-----------------------------|


      
Am                             Fmaj
avrei notato che dietro a guerre e soprusi
Am
il peggior crimine è l'indifferenza in sè.


(Palm mute next 5 lines)

 N.C.
 Amore perdonami ma ho ucciso anche te,
 N.C.
 mi han detto "l'amore tira fuori il meglio" ed io ho un oceano triste in me!
 N.C.
 Amore perdonami e scappa via da qui,
 N.C.
 lei torna ogni notte, mi scopa più forte
 N.C.
 e dice che è meglio così.

Am                                      Fmaj
Freddi giorni e questi aghi li rendon bui
Am
ma questo è un bene per il male dentro di me. 


(Play it just after Am while he's singing "dentro di me")
e|---- ------------------------|
B|-----------------------------|
G|-----------------------------|
D|-----------------------------|
A|-------3-2-0-----------------|
E|-----------------------------|

Am                                    Fmaj
Uccidon gli incubi ma lasciano cose peggiori:
Am
sogni e ricordi son rimasti chiusi e vivi in me.

 
[Chorus]

Am                     C
Ho chiesto aiuto ai demoni
                      G
e mi han risposto NOOOO!
                          F
"Hai fatto già tutto da solo, adesso tocca a te!"
Am                       C                 G
Ho scritto a Dio e mi ha risposto, mi ha risposto NOOOO!
                         F                 G
dice che io non credo in lui e lui non crede in me!
Am                     C                        G
Ho fatto troppi sbagli tenendo gli occhi chiusi
                       F
che ho aperto e ho visto così tanta merda che:
Am                    C             G
l'unico aiuto, Dio, guardami dai falsi amici
                     F          G
che da puttane e da nemici ci penso da me!


e|-----------0------------------0-------------------0--------------0-----------------------|
B|--------------------------1-------1----------1---------1------1----1---------------------|
G|-----2---------2--------2---2---2---2-----2----2----2-----2--2-2--2-2--------------------|
D|---2---2-----2---2----3--------------- 4--------------------3---------3-2-0---0-2--------|
A|-0--------------------------------------------------------------------------3-----3-2-0--|
E|-----------------------------------------------------------------------------------------|


[Verse]

Am                         C
Le ombre cambiano ogni notte,
                 G                      F
dipende da che luce ha effetto su di te.
                 Am                        C
La forza che non hai, il coraggio che non c'è,
               G                    F
la luna che volevi, il buio dentro te.


(Palm Mute next line)
         Am             C    
 Ora ti treman le mani,
             G                   F
 ti han tagliato le ali..

 Am                            C                    G          F
 Ora hai paura a guardare i tuoi abissi da quant'è che non voli!?


[Chorus]

Am                     C
Ho chiesto aiuto ai demoni
                      G
e mi han risposto NOOOO!
                          F
"Hai fatto già tutto da solo, adesso tocca a te!"
Am                       C                 G
Ho scritto a Dio e mi ha risposto, mi ha risposto NOOOO!
                         F                 G
dice che io non credo in lui e lui non crede in me!
Am                     C                        G
Ho fatto troppi sbagli tenendo gli occhi chiusi
                       F
che ho aperto e ho visto così tanta merda che:
Am                    C             G
l'unico aiuto, Dio, guardami dai falsi amici
                     F          G
che da puttane e da nemici ci penso da me!


[Outro]

e|-----------0------------------0-------------------0--------------0-----------------------|
B|--------------------------1-------1----------1---------1------1----1---------------------|
G|-----2---------2--------2---2---2---2-----2----2----2-----2--2-2--2-2--------------------|
D|---2---2-----2---2----3--------------- 4--------------------3---------3-2-0---0-2--------|
A|-0--------------------------------------------------------------------------3-----3-2-0--|
E|-----------------------------------------------------------------------------------------|

            
            
Suggest correction
Creating personal tab
Creating personal tab
You can edit any tab online and save it as your Personal.

You can edit, replace or remove any tab part or add personal notes – all changes will be seen only by you.

Personal tabs can be accessed anytime from any device, even offline.
Learn more »
Give kudos to tab author, rate the tab!
1 2 3 4 5
comments
print report bad tab
guest
You may want to rate the tab now too:
select rating
Wanna post a correction for this tab? Suggest correction