Oops, an error
Loading. Please wait.

Johnny On The Job bass

by Emanon
71 views 1 this week
no commentswrite comment
1 2 3 4 5
3 more votes to show rating
add to favorites
×
Save as Personal and add changes to this tab that will be seen only by you. Learn more ›
×
You can save this tab as Personal to edit and correct it or add notes. All changes will be seen only by you. Learn more »
launch autoscroll
font size
0
reset
guitar tuner
edit
Autoscroll
slow
fast
+/-
esc
set tempo
stop
Difficulty
Johnny on the Job by: Spencer and Jackson Kanenwisher, and Ian Sutherland
 E|----------------------------------------------------------------------------|
 B|----------------------------------------------------------------------------|intro
 G|----------------------------------------------------------------------------|
 D|----------------------------------------------------------------------------|
 A|---/-7777777-5555555333532222222--------------------------------x4----------|
 E|----------------------------------------------------------------------------|

 E|----------------------------------------------------------------------------|
 B|----------------------------------------------------------------------------|chorus
 G|---9999999-7777777555754444444----------------------------------------------|
 D|----------------------------------------------------------------------------|
 A|------------------------------------------------------------------x4--------|
 E|----------------------------------------------------------------------------|
 solo ( with guitars playing main riff)
 E|----------------------------------------------------------------------------|
 B|----------------------------------------------------------------------------|
 G|---7777777--12121212121212--14141414141414171717161921----------------------|
 D|----------------------------------------------------------------------------|
 A|----------------------------------------------------------------------------|
 E|----------------------------------------------------------------------------|
 solo ( with guitars playing main riff)
 E|----------------------------------------------------------------------------|
 B|----------------------------------------------------------------------------|
 G|--212121212121212121212121212121--------------------------------------------|
 D|----------------------------------------------------------------------------|
 A|----------------------------------------------------------------------------|
 E|----------------------------------------------------------------------------|
 solo ( with guitars playing main riff)
 E|----------------------------------------------------------------------------|
 B|----------------------------------------------------------------------------|
 G|----151412--five--time-s----------------------------------------------------|
 D|----------------------------------------------------------------------------|
 A|----------------------------------------------------------------------------|
 E|----------------------------------------------------------------------------|
back to chorus, play three times

 solo2 ( with guitars playing main riff palm muted)
 E|----------------------------------------------------------------------------|
 B|----------------------------------------------------------------------------|
 G|--------------------------------------------------------------------12141214|
 D|----------12141214--------1412------------------------------12141214--------|
 A|------1214------------1214----1412----play--twic-e------1214----------------|
 E|--1215------------1215------------------------------1215--------------------|
 solo2 ( with guitars playing main riff palm muted)
 E|----------------------------------------------------------------------------|
 B|----------------------------------------------------------------------------|
 G|--15141214-----------------9------------------------------------------------|
 D|----------1412------1214---9------------------------------------------------|
 A|--------------141214-------7------------------------------------------------|
 E|---------------------------0------------------------------------------------|
Back to Intro, play twice than end with


E|-------------------------------------------------------------------------------|
 B|------------------------------------------------------------------------------|
 G|---------9--------------------------------------------------------------------|
 D|---------9------------le-t--it--ring------------------------------------------|
 A|---------7--------------------------------------------------------------------|
 E|---------0--------------------------------------------------------------------|

Thanks, this song is fun to play. It has freakin awsome drums and guitar as well. My 
is rocker_spence@hotmail.com
Compiled with TabPlayer :: http://www.simoneperandini.com/tabplayer.htm

            
            
Suggest correction
Creating personal tab
Creating personal tab
You can edit any tab online and save it as your Personal.

You can edit, replace or remove any tab part or add personal notes – all changes will be seen only by you.

Personal tabs can be accessed anytime from any device, even offline.
Learn more »
Give kudos to tab author, rate the tab!
1 2 3 4 5
comments
print report bad tab
guest
Wanna post a correction for this tab? Suggest correction