Oops, an error
Loading. Please wait.

Try bass

by Emanon
22 views 1 this week
no commentswrite comment
1 2 3 4 5
3 more votes to show rating
add to favorites
×
Save as Personal and add changes to this tab that will be seen only by you. Learn more ›
×
You can save this tab as Personal to edit and correct it or add notes. All changes will be seen only by you. Learn more »
launch autoscroll
font size
0
reset
guitar tuner
edit
Autoscroll
slow
fast
+/-
esc
set tempo
stop
Hello metal community! 
This tab isn't necessarily made for you guys to print and play, this tab was made for our bassist in 
case the riffs are forgotten. Emanon is the name of our band, we are a local Nu Metal band from Lake Stevens
Washington. 

If you live in the area follow us on Instagram @Emanon_bandwa!! 

Drop C Tuning for a 5 string bass (G C G C F)

Intro
F|-------------------------------------------------|
C|----12----10----0----3----0----3-----0-----------|
G|-------------------------------------------------|
C|-------------------------------------------------|
G|-------------------------------------------------|

"Cuz no one does!"

Verse 1
F|-------------------------------------------------|
C|-------------------------------------------------|
G|-------------------------------------------------|
C|---1-1-1-0----1-1-1-0--------1-1-1-0-------------|
G|-------------------------------------------------|

F|-------------------------------------------------|
C|-------------------------------------------------|
G|-------------------------------------------------|
C|---10-10-12-7-7/5-7--1-1-1-0---------------------| repeat x4
G|-------------------------------------------------|

"I rest my tired eyes"

Verse 2
F|-------------------------------------------------------------|
C|-------------------------------------------------------------|
G|-------------------------------------------------------------|
C|----0----0----0----3----3-3----3----3-3----3----3-3--1-1-1-0-|
G|-------------------------------------------------------------|

"Cuz I know you try"

Chorus
F|--------------------------------------------------------------|
C|--------------------------------------------------------------|
G|--------------------------------------------------------------|
C|--------------------------------------------------------------|
G|-0-0--5-5--7--8-8-8-8-8-8---0-0--5-5--8--3-3-3-3-3-3--5-5-----|

"Is there any chance at all?"

Verse 3
F|------------------------------------------------------|
C|-------7-----7-----3-5-3----3-5-3---------------------|
G|------------------------------------------------------|
C|----0-----0-----0---------0---------------------------| repeat until "Can't continue on like this"
G|------------------------------------------------------|

Verse 1
F|-------------------------------------------------|
C|-------------------------------------------------|
G|-------------------------------------------------|
C|---1-1-1-0----1-1-1-0--------1-1-1-0-------------|
G|-------------------------------------------------|

F|-------------------------------------------------|
C|-------------------------------------------------|
G|-------------------------------------------------|
C|---10-10-12-7-7/5-7--1-1-1-0---------------------| repeat x6
G|-------------------------------------------------|

"I Hate this!"

Interlude
F|-------------------------------------------------|
C|-------------------------------------------------|
G|-------------------------------------------------|
C|---1-1-1-0--1-1-1-0------------------------------|
G|-------------------------------------------------|

"What do i get?

F|-------------------------------------------------|
C|-------------------------------------------------|
G|-------------------------------------------------|
C|---1-1-1-0--1-1-1-0------------------------------|
G|-------------------------------------------------|

Chorus
F|--------------------------------------------------------------|
C|--------------------------------------------------------------|
G|--------------------------------------------------------------|
C|--------------------------------------------------------------|
G|-0-0--5-5--7--8-8-8-8-8-8---0-0--5-5--8--3-3-3-3-3-3--5-5-----|

That's it!
If you have any questions feel free to email us at EmanonbandNIJJJ@gmail.com!

Soaked, from the blood
is my life meant for someone else?
(It's the shit) I put up with
For days on end,
Show me your heart

CUZ NO ONE DOES!

I rest my tired eyes
and think about your deceiving lies
open your eyes and realize 
you're not the one whose victimized

I rest my tired eyes 
and think about tour deceiving lies
I'll open my eyes
now open wide let me crawl inside

I'll make you look weak 
I'll tear you apart
I know you're fine
I'll make you look weak 
I'll tear you apart
Cuz I know you try

I'll make you look weak 
I'll tear you apart
I know you're fine
I'll make you look weak 
I'll tear you apart
Cuz I know you try

I try I fall
(I rise)
But every time I do
(I fail again)
Is there any chance at all?

I try I fall
(I rise)
But every time I do
(I fail again)
Is there any chance at all?

It's been way too long, 
since I've gained any trust,
Was the fighting worth it?
Was the loss worth the little you received?

I can't continue on like this!

I go through hell to make your heaven
I die so you can live
I fall so you can rise
I Hate this!

What do I get?

I try I fall
(I rise)
But every time I do
(I fail again)
Is there any chance at all?

I try I fall
(I rise)
But every time I do
(I fail again)

I'll make you look weak 
I'll tear you apart
I know you're fine
I'll make you look weak 
I'll tear you apart
Cuz I know you try
Suggest correction
Creating personal tab
Creating personal tab
You can edit any tab online and save it as your Personal.

You can edit, replace or remove any tab part or add personal notes – all changes will be seen only by you.

Personal tabs can be accessed anytime from any device, even offline.
Learn more »
Give kudos to tab author, rate the tab!
1 2 3 4 5
comments
print report bad tab
guest
Wanna post a correction for this tab? Suggest correction