Oops, an error
Loading. Please wait.

Hey Man bass

by Emanuel
870 views 1 this week
no commentswrite comment
1 2 3 4 5
3 more votes to show rating
add to favorites
×
Save as Personal and add changes to this tab that will be seen only by you. Learn more ›
×
You can save this tab as Personal to edit and correct it or add notes. All changes will be seen only by you. Learn more »
launch autoscroll
font size
0
reset
guitar tuner
edit
Autoscroll
slow
fast
+/-
esc
set tempo
stop
One of my old favorites. 
Most of it's right, solo may be wrong, sorry. 
And the final chorus is altered, 
but it's nothing you can't figure out for yourself really.

Intro:
G-----------------------------------------|
D-----------------------------------------|
A-----------------------------------------|
D-6h9p6-/121212----/1212121212121212------|x1
            ^All Twelves
Verse:
G-----------------------------------------|
D-----------------------------------------|
A----------------------2-22-22-4-44-------|
D-6-6-9p6h9p6-66-9-9h6--------------6p4/1-|x3

G------------------------------------|
D------------------------------------|
A----------------------2-2-2---------|
D-6-6-9p6h9p6-66-9-9h6-------1196946-|x1
                             ^Eleven
Pre-Chorus:
|G--------------------------------|
|D--------------------------------|
|A-----------2-222-234-64--234-64-|
|D-6-xxxx-66----------------------|x3

|G-----------------|
|D-----------------|
|A-----------------|
|D-6-xxxx-66-4-444-|x1

Chorus:
|G------------------------------------------------------------------------|
|D------------------------------------------------------------------------|
|A----------------------------2-22-4p2------------------------------------|
|D-2-22-222-4-44-444-6-66-666----------2-22-222-4-44-444-6-66-666-666-6p4-|

|G-------------------------------------------------------------------------|
|D-------------------------------------------------------------------------|
|A----------------------------2-22-4p2-------------------------------------|
|D-2-22-222-4-44-444-6-66-666----------2-22-222-222-222-1-11-111-444-6p4s1-|

Repeat Verse
Repeat Pre-Chorus
Repeat Chorus

Bass Solo!
G|----------------------------------|
D|----------------------------------|
A|----------33-3543-----------------|
D|--5-4h5-55-------3-2-222-222-2222-|x5

G|----------------------|
D|----------------------|
A|----------33-3543-----|
D|--5-4h5-55-------3-2~-|x1

Repeat Verse
Repeat Chorus

Outro:
|G----------------------------------------------------------------------------|
|D----------------------------------------------------------------------------|
|A----------------------------------------------------------------------------|
|D-6-6-/121212-/121212-/1212-2-2-2-4-4-4-6~-----------------------------------|

            
            
Suggest correction
Creating personal tab
Creating personal tab
You can edit any tab online and save it as your Personal.

You can edit, replace or remove any tab part or add personal notes – all changes will be seen only by you.

Personal tabs can be accessed anytime from any device, even offline.
Learn more »
Give kudos to tab author, rate the tab!
1 2 3 4 5
comments
print report bad tab
guest
You may want to rate the tab now too:
select rating
Wanna post a correction for this tab? Suggest correction