Oops, an error
Loading. Please wait.

Make Tonight bass

version 1
version 1

Whole song

Interactive

by Emanuel
1,632 views 3 this week
2 commentsread comments
1 2 3 4 5
2 more votes to show rating
add to favorites
×
Save as Personal and add changes to this tab that will be seen only by you. Learn more ›
×
You can save this tab as Personal to edit and correct it or add notes. All changes will be seen only by you. Learn more »
launch autoscroll
font size
0
reset
guitar tuner
edit
Autoscroll
slow
fast
+/-
esc
set tempo
stop
Author
Song: Make Tonight
Artist: Emanuel
Album: Soundtrack To A Headrush
Tabbed by: dakota_s_@hotmail.com


~hold
/slide up		There are only 11's in this song not 1's
\slide down
*cut note

Intro
Play Quietly
G-----------------|
D-----------------|
A-----------------|
E-11~~7~~0/11~~7~~

             Play Normal
G--------------------------------------------|
D--------------------------------------------|
A-------------------------------------5*5*5--|
E-0~h9/11~-11*-7~-7*-7*-0~h9/11~11*-7~-------|


Verse x4
"She puts her lips..."      1st&3rd
G---------------------[-----------------]
D---------------------[-----------------]    i labeled the second part of
A-6*6~5h6-6-5h6-9-8-6-[-----------------]    the verse and which one should
E---------------------[7-7~79-9-9-10-9-7]    be played when
      2nd		4th
G[---------------][----------------]
D[---------------][----------------]
A[---------------][---------9999999]
E[7-7~79-9~9*9*9*][7-7~79-9~-------]


Chorus
"Sweet so sweet..."
G-----------------------------------------------------------|
D-----------------------------------------------------------|
A-----------------------------------------------------------|
E-0-0/9-0-0/9-777-777-222-222-0-0/9-0-0/9-777-777-222-0/9\0-|

chorus continued...
G------------------------------------------------|
D------------------------------------------------|
A------------------------------------------------|
E-0-0/9-0-0/9-777-777-2224400-777-777-99-99-9999-|

chorus continued...
G----------------------------|
D----------------------------|
A---------------------5*5*5--|
E-777-777-99-99-99999~-------|


Verse x4
"She puts her lips..."      1st&3rd
G---------------------[-----------------]
D---------------------[-----------------]
A-6*6~5h6-6-5h6-9-8-6-[-----------------]
E---------------------[7-7~79-9-9-10-9-7]
      2nd		4th
G[---------------][----------------]
D[---------------][----------------]
A[---------------][---------9999999]
E[7-7~79-9~9*9*9*][7-7~79-9~-------]


Chorus
"Sweet so sweet..."
G-----------------------------------------------------------|
D-----------------------------------------------------------|
A-----------------------------------------------------------|
E-0-0/9-0-0/9-777-777-222-222-0-0/9-0-0/9-777-777-222-0/9\0-|

chorus continued...
G------------------------------------------------|
D------------------------------------------------|
A------------------------------------------------|
E-0-0/9-0-0/9-777-777-2224400-777-777-99-99-9999-|

chorus continued...
G----------------------------|
D----------------------------|
A---------------------5*5*5--|
E-777-777-99-99-99999~-------|


Outro
"May tonight stay..."                         	In the outro and end the
G--------------------------------------         groups of 1's are 11-|s
D--------------------------------------------------------------------|  x3
A--------------------------------------------------------------------|
E-11111111111197777654-22-22-22-22-2222------------------------------|

"Stay tonight right here..."
G--------------------------------------|
D--------------------------------------|  play this for the fourth time
A--------------------------------------|
E-11111111111197777654-2222222222222222

End
"We give it all, we all just fade away..."
G-----------------------------------------|
D-----------------------------------------|
A-----------------------------------------|
E-11111111111111977777777-4444444444444444

End continued...
G--------------------------------------------------|
D--------------------------------------------------|
A-----------------------------------------6~~~~~~~-|
E-11111111111111977777777-4444444444444444---------|

            
            
Suggest correction
Creating personal tab
Creating personal tab
You can edit any tab online and save it as your Personal.

You can edit, replace or remove any tab part or add personal notes – all changes will be seen only by you.

Personal tabs can be accessed anytime from any device, even offline.
Learn more »
Give kudos to tab author, rate the tab!
1 2 3 4 5
comments
print report bad tab
2 comments total.
+2 reply
somethingcool76 10 Dec 15, 2008 09:20 AM

hey dude, i think this is a really good idea of the song, but i think it may be in dropped D, or a half step down, because if you replace your open E's with a D# it sounds closer i think.

0 reply
dakota_s_ 277 Mar 29, 2012 03:27 PM

Hoo damn. Looking at this tab 4 and a half years later and I can't say I am too impressed that I would create such a thing. I may re-tab this song to something a LOT more accurate soon when I find the time.

guest
You may want to rate the tab now too:
select rating
Wanna post a correction for this tab? Suggest correction