Oops, an error
Loading. Please wait.

Make Tonight bass

version 2
version 2

Whole song

Interactive

by Emanuel
203 views 1 this week
no commentswrite comment
1 2 3 4 5
3 more votes to show rating
add to favorites
×
Save as Personal and add changes to this tab that will be seen only by you. Learn more ›
×
You can save this tab as Personal to edit and correct it or add notes. All changes will be seen only by you. Learn more »
launch autoscroll
font size
0
reset
guitar tuner
edit
Autoscroll
slow
fast
+/-
esc
set tempo
stop
Author
Difficulty
I love this song and have listened to it over and over again. I took what was in the
previous bass tab on here and fixed some of the parts they had that were confusing or
didn't sound right. Should be 95% accurate aside from the weird slap part in the intro, 
wasn't too sure but it sounds fine. Enjoy!

Intro
G|---------------------------------------------------------------------------------------|
D|---------------------------------------------------------------------------------------|
A|--------------------------------------------------------------------------0h5*0h5*0h5--|
E|-11~~11*-7~~7*-7*-0/11~~11*-7~~7*-7*--0~-9/11~11*-7~-7*-7*-0~-9/11~11*-7~--------------|

Verse x4
G|-----------------------------------------------|
D|-----------------------------------------------|
A|-6*-6*-5h6*-6*-5/9-8-6-------------------------|
E|------------------------7*-7*-7h9*-9*-9-10-9-7-|

G|---------------------------------------------------|
D|---------------------------------------------------|
A|-6*-6*-5h6*-6*-5/9-8-6-----------------------------|
E|------------------------7*-7*-7h9*-9*-0h9*0h9*0h9*-|

G|-----------------------------------------------|
D|-----------------------------------------------|
A|-6*-6*-5h6*-6*-5/9-8-6-------------------------|
E|------------------------7*-7*-7h9*-9*-9-10-9-7-|

G|-----------------------------------------------|
D|-----------------------------------------------|
A|-6*-6*-5h6*-6*-5/9-8-6----------------99999999-|
E|------------------------7*-7*-7h9*-9*----------|

Chorus
G-----------------------------------------------------------|
D-----------------------------------------------------------|
A-----------------------------------------------------------| x2
E-0-0/9-0-0/9-777-777-222-222-0-0/9-0-0/9-777-777-222-222---|

G---------------------------------------------------------------------------------|
D---------------------------------------------------------------------------------|
A--------------------------------------------------------------------0h5*0h5*0h5--|
E-0-0/9-0-0/9-777-777-2224400-77-77-99-99-9999-77-77-99-99-99999~0~~--------------|

Verse x4

Chorus

Outro
"May tonight stay..."
G----------------------------------------|
D----------------------------------------|  x3
A----------------------------------------|
E-11111111111197777654-22-22-22-22-2222--|

"Stay tonight right here..."
G---------------------------------------|
D---------------------------------------|
A---------------------------------------|
E-11111111111197777654-2222222222222222-|

End
"We give it all, we all just fade away..."
G------------------------------------------|
D------------------------------------------|
A------------------------------------------|
E-11111111111111977777777-4444444444444444-|

End continued...
G--------------------------------------------------|
D--------------------------------------------------|
A-----------------------------------------6~~~~~~~-|
E-11111111111111977777777-4444444444444444---------|

            
            
Suggest correction
Creating personal tab
Creating personal tab
You can edit any tab online and save it as your Personal.

You can edit, replace or remove any tab part or add personal notes – all changes will be seen only by you.

Personal tabs can be accessed anytime from any device, even offline.
Learn more »
Give kudos to tab author, rate the tab!
1 2 3 4 5
comments
print report bad tab
guest
You may want to rate the tab now too:
select rating
Wanna post a correction for this tab? Suggest correction