Oops, an error
Loading. Please wait.

A Toast To The Future Kids Tab

version 1
version 1

Acoustic

Whole song

Interactive

22,168 views 15 this week
9 commentsread comments
1 2 3 4 5
accurate
x 4
add to favorites
launch autoscroll
font size
0
reset
how to read this tab
guitar tuner
Autoscroll
slow
fast
+/-
esc
set tempo
stop
Help us to improve Ultimate-Guitar.com Take our survey!
×
Author
midgar777 113
------------------------------------------------------------------
              A Toast To The Future Kids?  - Emarosa
------------------------------------------------------------------

Tabbed by: Peter Butler
Email: peter@thecityisburning.com
Twitter: @midgar777

Hello Emarosa fans ^_^! Like the rest of you I really want to learn this awesome song! 
I've tried watching the acoustic video over and over but the camera unfortunately 
focuses on Jonny a lot and not the guitarists so it's hard to tab out. 
Thanks and be nice (first real tab :S!) 

Tuning: Db Ab Db Gb Bb Eb

Intro Riff

eb|--------------------------------------|
Bb|--5~-------3~-------------------------|
Gb|--5~-------4~-------5~-------7~-------|        ring out
Db|--7~-------5~-------3~-------5~-------|        played twice
Ab|--0~-------0~-------3~-------5~-------|
Db|--------------------3~-------5~-------|

Pre Verse - hang on the chord below for 2 bars:

eb|----------|  
Bb|--5-------|
Gb|--2-------|       
Db|--3-------|        
Ab|--0-------|
Db|--3-------|

Verse - same as intro but strum it:

eb|----------------------------------------|
Bb|--55555555-33333333---------------------|
Gb|--55555555-44444444-22222222-44444444---|        Play this riff x2
Db|--77777777-55555555-33333333-55555555---|        
Ab|--00000000-00000000-00000000-00000000---|
Db|--------------------33333333-55555555---|

then palm mute this

eb|--------------------------|
Bb|--------------------------|
Gb|--------------------------|        
Db|---555555555555-555-------|        
Ab|---555555555555-555-------|
Db|---555555555555-555-------|

Chorus - Strum these (listen to song for timing!)

eb|-------------------------------|
Bb|-------------------------------|
Gb|---2--------4--------5---------|        
Db|---3--[x1]--5--[x1]--7--[x2]---|     Play this riff x2   
Ab|---x--------x--------x---------|
Db|---3--------5--------7---------|

then

eb|--------------------------------|
Bb|--------------------------------|
Gb|----9--------7--------5---------|        
Db|---10--[x1]--9--[x1]--7--[x2]---|     
Ab|----x--------x--------x---------|
Db|---10--------9--------7---------|

finally

eb|----------------------|
Bb|----------------------|
Gb|---2--------4---------|        
Db|---3--[x2]--5--[x2]---|     
Ab|---x--------x---------|
Db|---3--------5---------|

That's all I've got guys, sorry if it's lame or inaccurate! Please email me 
or tweet me (@midgar777) if you have any question or corrections etc! 

Please Rate / Comment / Correct <3

Thanks!

EDIT 1: 
Thanks to michelvanessen for the corrections to the verse and chorus!
I've updated them now, albeit 5 years later haha!
Suggest correction
What's this?
You can suggest a correction to this tab. Community and Mods will review your correction and vote to approve or reject it.
comments
print report bad tab
9 comments total. Showing first comments.
+1 reply
michelvanessen 17 wrote on March 9 2011, 06:16 am

Ow my everything, who in the world voted 1 star for this tab? It's almost perfect and exactly played like Emarosa plays it.

Nice job here!!

+1 reply
michelvanessen 17 wrote on March 9 2011, 06:23 am

owk so I see it's not the whole song. I'll figure some out and post it.

+1 reply
michelvanessen 17 wrote on March 9 2011, 06:46 am

so for here's the first correction the 1st verse and chorus:

(you heard the chords right at the chorus, they use two of the same chords in the verse)

Eb|--------------------------------------|
Bb|--55555555-33333333--------------------|
Gb|--55555555-44444444-22222222-44444444---|
Db|--77777777-55555555-33333333-55555555---|
Ab|--00000000-00000000-00000000-00000000---|
Db|-------------------33333333-55555555---|

when he sing 'how you became my' it's:

eb|------------|
Bb|-55555555---|
Gb|-22222222---|
Db|-33333333---|
Ab|--00000000--|
Db|-33333333-5-|

the chorus is just about right : o)

Tomorrow I have more time and I'll try to figure out the bridge.

guest
You may want to rate the tab now too:
select rating
Please do not post tabs as comments. Select "correction" instead!