Oops, an error
Loading. Please wait.

Mad tab

version 2
version 2

Whole song

by Emarosa
529 views 3 this week
no commentswrite comment
1 2 3 4 5
3 more votes to show rating
add to favorites
×
Save as Personal and add changes to this tab that will be seen only by you. Learn more ›
×
You can save this tab as Personal to edit and correct it or add notes. All changes will be seen only by you. Learn more »
launch autoscroll
font size
0
reset
how to read this tab
guitar tuner
edit
Autoscroll
slow
fast
+/-
esc
set tempo
stop
Author
Tabbed by: jcameronp
Tuning: Drop D

. = palm mute
/ = slide
b = bend

-----

Intro
Guitar 1
e|---------------------------------------------------------------------------|
B|---------------------------------------------------------------------------|
G|-6/14---6/14-13/6---6/14-16b18-13------------------------------------------|
D|---------------------------------------------------------------------------|
A|---------------------------------------------------------------------------|
D|---------------------------------------------------------------------------|

Guitar 2
e|---------------------------------------------------------------------------|
B|---------------------------------------------------------------------------|
G|---------------------------------------------------------------------------|
D|-4-4-4-0-0-0-0-0-0-0-0-0-0-0-0-4-4-4-0-0-0-2-2-2-2-2-2-2-2-----------------|
A|-4-4-4-0-0-0-0-0-0-0-0-0-0-0-0-4-4-4-0-0-0-2-2-2-2-2-2-2-2-----------------|
D|-4-4-4-0-0-0-0-0-0-0-0-0-0-0-0-4-4-4-0-0-0-2-2-2-2-2-2-2-2-----------------|x2

-----

Verse
Guitar 1
e|---------------------------------------------------------------------------|
B|---------------------------------------------------------------------------|
G|-13-14-13-14-13-14---------------------------------------------------------|
D|-------------------14-16-14-16-14-16-14-16---------------------------------|
A|---------------------------------------------------------------------------|
D|---------------------------------------------------------------------------| x2

e|---------------------------------------------------------------------------|
B|---------------------------------------------------------------------------|
G|-13-14-13-14-13-14-18-14-18-14-18------------------------------------------|
D|----------------------------------11-14-9/11-11-14-11-14-11/9--------------|
A|---------------------------------------------------------------------------|
D|---------------------------------------------------------------------------|

e|---------------------------------------------------------------------------|
B|---------------------------------------------------------------------------|
G|-13-14-13-14-13-14---------------------------------------------------------|
D|-------------------14-16-14-16-14-16-14-16---------------------------------|
A|---------------------------------------------------------------------------|
D|---------------------------------------------------------------------------| x2

e|---------------------------------------------------------------------------|
B|-------------------------------/17-17-17-17-17-17-17-17-17-----------------|
G|-14-18-14-18-14-18-18-16-18-16---------------------------------------------|
D|---------------------------------------------------------------------------|
A|---------------------------------------------------------------------------|
D|---------------------------------------------------------------------------|

Guitar 2
e|---------------------------------------------------------------------------|
B|---------------------------------------------------------------------------|
G|---------------------------------------------------------------------------|
D|-4-------0-------2---------------------------------------------------------|
A|-4-(x32)-0-(x16)-2-(x16)---------------------------------------------------|
D|-4-------0-------2---------------------------------------------------------|
   .       .       .
e|---------------------------------------------------------------------------|
B|---------------------------------------------------------------------------|
G|---------------------------------------------------------------------------|
D|-4-------0-------2---------------------------------------------------------|
A|-4-(x32)-0-(x16)-2-(x16)---------------------------------------------------|
D|-4-------0-------2---------------------------------------------------------|
   .       .

-----

Chorus
Guitar 1
e|---------------------------------------------------------------------------|
B|---------------------------------------------------------------------------|
G|-6/14---6/14-13/6---6/14-16b18-13------------------------------------------|
D|---------------------------------------------------------------------------|
A|---------------------------------------------------------------------------|
D|---------------------------------------------------------------------------|

Guitar 2
e|---------------------------------------------------------------------------|
B|---------------------------------------------------------------------------|
G|---------------------------------------------------------------------------|
D|-4-4-4-0-0-0-0-0-0-0-0-0-0-0-0-4-4-4-0-0-0-2-2-2-2-2-2-2-2-----------------|
A|-4-4-4-0-0-0-0-0-0-0-0-0-0-0-0-4-4-4-0-0-0-2-2-2-2-2-2-2-2-----------------|
D|-4-4-4-0-0-0-0-0-0-0-0-0-0-0-0-4-4-4-0-0-0-2-2-2-2-2-2-2-2-----------------|x2

-----

Verse 2
Guitar 1
e|---------------------------------------------------------------------------|
B|---------------------------------------------------------------------------|
G|-13-14-13-14-13-14---------------------------------------------------------|
D|-------------------14-16-14-16-14-16-14-16---------------------------------|
A|---------------------------------------------------------------------------|
D|---------------------------------------------------------------------------| x2

e|---------------------------------------------------------------------------|
B|---------------------------------------------------------------------------|
G|-13-14-13-14-13-14-18-14-18-14-18------------------------------------------|
D|----------------------------------11-14-9/11-11-14-11-14-11/9--------------|
A|---------------------------------------------------------------------------|
D|---------------------------------------------------------------------------|

e|---------------------------------------------------------------------------|
B|---------------------------------------------------------------------------|
G|-13-14-13-14-13-14---------------------------------------------------------|
D|-------------------14-16-14-16-14-16-14-16---------------------------------|
A|---------------------------------------------------------------------------|
D|---------------------------------------------------------------------------| x2

e|---------------------------------------------------------------------------|
B|-------------------------------/17-17-17-17-17-17-17-17-17-----------------|
G|-14-18-14-18-14-18-18-16-18-15---------------------------------------------|
D|---------------------------------------------------------------------------|
A|---------------------------------------------------------------------------|
D|---------------------------------------------------------------------------|

Guitar 2
e|---------------------------------------------------------------------------|
B|---------------------------------------------------------------------------|
G|-6-------------------------------------------------------------------------|
D|-6-(x8)-4------7------4-------7-------2-------4-------7-------2------------|
A|-4------4-(x4)-7-(x4)-4-(x16)-7-(x16)-2-(x16)-4-(x32)-7-(x16)-2-(x16)------|
D|--------4------7------4-------7-------2-------4-------7-------2------------|
   .      .      .      .       .       .       .       .       

-----

Chorus
Guitar 1
e|---------------------------------------------------------------------------|
B|---------------------------------------------------------------------------|
G|-6/14---6/14-13/6---6/14-16b18-13------------------------------------------|
D|---------------------------------------------------------------------------|
A|---------------------------------------------------------------------------|
D|---------------------------------------------------------------------------|

Guitar 2
e|---------------------------------------------------------------------------|
B|---------------------------------------------------------------------------|
G|---------------------------------------------------------------------------|
D|-4-4-4-0-0-0-0-0-0-0-0-0-0-0-0-4-4-4-0-0-0-2-2-2-2-2-2-2-2-----------------|
A|-4-4-4-0-0-0-0-0-0-0-0-0-0-0-0-4-4-4-0-0-0-2-2-2-2-2-2-2-2-----------------|
D|-4-4-4-0-0-0-0-0-0-0-0-0-0-0-0-4-4-4-0-0-0-2-2-2-2-2-2-2-2-----------------|x2

Second time through:

Guitar 1
e|---------------------------------------------------------------------------|
B|----------------------------------19~--------------------------------------|
G|-6/14---6/14-13/6---6/14-16-18-19------------------------------------------|
D|---------------------------------------------------------------------------|
A|---------------------------------------------------------------------------|
D|---------------------------------------------------------------------------|

Guitar 2
e|---------------------------------------------------------------------------|
B|---------------------------------------------------------------------------|
G|---------------------------------------------------------------------------|
D|-4-4-4-0-0-0-0-0-0-0-0-0-0-0-0-4-4-4-0-0-0-2-2-2-2-2-2-2-2-----------------|
A|-4-4-4-0-0-0-0-0-0-0-0-0-0-0-0-4-4-4-0-0-0-2-2-2-2-2-2-2-2-----------------|
D|-4-4-4-0-0-0-0-0-0-0-0-0-0-0-0-4-4-4-0-0-0-2-2-2-2-2-2-2-2-----------------|x2

-----
   
Bridge
Guitar 1 (really faint and hard to hear so it might be incorrect)
e|--------14----16----17-17-17-----------------------------------------------|
B|-15b-12----15----15----------14b-------------------------14/15-15-15-------|
G|---------------------------------14/15/14/12-14/15/14/12-------------------|
D|---------------------------------------------------------------------------|
A|---------------------------------------------------------------------------|
D|---------------------------------------------------------------------------|

e|---------------------------------------------------------------------------|
B|----------15-15-15-15-15-15-15-15/9-9-9-9-9-9-7-7--------------------------|
G|-14/9-9-7------------------------------------------------------------------|
D|---------------------------------------------------------------------------|
A|---------------------------------------------------------------------------|
D|---------------------------------------------------------------------------|

e|--------14----16----17-17-17-----------------------------------------------|
B|-15b-12----15----15----------12-(x8)-17-(x4)-15-(x4)-14~-------------------|
G|---------------------------------------------------------14~-13h14p13-11-9-|
D|---------------------------------------------------------------------------|
A|---------------------------------------------------------------------------|
D|---------------------------------------------------------------------------|

e|---------------------------------------------------------------------------|
B|-17~-14~-------------------------------------------------------------------|
G|---------13/14/9---14-13/21------------------------------------------------|
D|---------------------------------------------------------------------------|
A|----------------------------16~--------------------------------------------|
D|---------------------------------------------------------------------------|

Guitar 2
e|-----------------------------------------------------------------------------|
B|-----------------------------------------------------------------------------|
G|-4-------------------------------4-------------------------------------------|
D|-4-(x16)-0-------7-------2-------4-(x16)-2-------4~-2~-4~-4~-2~-4~-0~-2------|
A|-2-------0-(x16)-7-(x16)-2-(x16)-2-------2-(x16)-4~-2~-4~-4~-2~-4~-0~-2-(x16)|
D|---------0-------7-------2---------------2-------4~-2~-4~-4~-2~-4~-0~-2------|

-----

Bridge pt 2 (there's a part of me...)
Guitar 1
e|---------------------------------------------------------------------------|
B|---------------------------------------------------------------------------|
G|-6/11~---------------------------------------------------------------------|
D|---------------------------------------------------------------------------|
A|---------------------------------------------------------------------------|
D|---------------------------------------------------------------------------|

Guitar 2
e|---------------------------------------------------------------------------|
B|---------------------------------------------------------------------------|
G|---------------------------------------------------------------------------|
D|-4------0-------4------0------2~-------------------------------------------|
A|-4-(x4)-0-(x12)-4-(x4)-0-(x3)-2~-------------------------------------------|
D|-4------0-------4------0------2~-------------------------------------------|
   .      .       .      .      

-----

Chorus x2
Guitar 1
e|---------------------------------------------------------------------------|
B|---------------------------------------------------------------------------|
G|-6/14---6/14-13/6---6/14-16b18-13------------------------------------------|
D|---------------------------------------------------------------------------|
A|---------------------------------------------------------------------------|
D|---------------------------------------------------------------------------|

Guitar 2
e|---------------------------------------------------------------------------|
B|---------------------------------------------------------------------------|
G|---------------------------------------------------------------------------|
D|-4-4-4-0-0-0-0-0-0-0-0-0-0-0-0-4-4-4-0-0-0-2-2-2-2-2-2-2-2-----------------|
A|-4-4-4-0-0-0-0-0-0-0-0-0-0-0-0-4-4-4-0-0-0-2-2-2-2-2-2-2-2-----------------|
D|-4-4-4-0-0-0-0-0-0-0-0-0-0-0-0-4-4-4-0-0-0-2-2-2-2-2-2-2-2-----------------|x2
Suggest correction
Creating personal tab
Creating personal tab
You can edit any tab online and save it as your Personal.

You can edit, replace or remove any tab part or add personal notes – all changes will be seen only by you.

Personal tabs can be accessed anytime from any device, even offline.
Learn more »
Give kudos to tab author, rate the tab!
1 2 3 4 5
comments
print report bad tab
guest
You may want to rate the tab now too:
select rating
Wanna post a correction for this tab? Suggest correction