Oops, an error
Loading. Please wait.

Twilight Bass Tab

113 views 3 this week
no commentswrite comment
1 2 3 4 5
please rate
add to favorites
launch autoscroll
font size
0
reset
guitar tuner
Autoscroll
slow
fast
+/-
esc
set tempo
stop
Help us to improve Ultimate-Guitar.com Take our survey!
×
Author
Emberghost - Twilight
Meet Me On The Battlefield

Note: Most of this song is done with very fast tremolo picking in groups of four.

Intro
G|----------------------R----------------------------------------|
D|----------------------E----------------------------------------|
A|-----------11h12\-----S----------------------------------------|
D|----11h12-------------T----------------------------------------|

G|---------------------------------------------------------------|
D|---------------------------------------------------------------|
A|---------------------------------------------------------------|
D|--4444-4444-4444-4444-0000-0000-2222-2222----------------------|  X2

   Main Riff
G|---------------------------------------------------------------|
D|---------------------------------------------------------------|
A|---------------------------------------------------------------|
D|-4444--4444--4444--6666-7777--0000--0000--9999777766667777-----| X4


   Chorus  |-3-|
G|-------------------------------------------------------------------|
D|-------------------------------------------------------------------|
A|-------------------------------------------------------------------|
D|--4~-----6-7-6-4-4-6----0~------2-2-2/12---------------------------| X2
                                    1st time only    2nd time only
G|--------------------------------|----------------|-------------|
D|-------------------4~-----------|----------------|-------------|
A|--------------------------------|----------------|-------------|
D|--4-4-4-4----4-4-4----0-0-0-0---|----2-2-2/12----|--0-0-0-0----| X2

 Main Riff
G|---------------------------------------------------------------|
D|---------------------------------------------------------------|
A|---------------------------------------------------------------|
D|-4444--4444--4444--6666-7777--0000--0000--9999777766667777-----| X4


    Chorus |-3-|
G|---------------------------------------------------------------|
D|---------------------------------------------------------------|
A|---------------------------------------------------------------|
D|--4~-----6-7-6-4-4-6----0~------2-2-2/12-----------------------| X2
                                    1st time only    2nd time only
G|--------------------------------|----------------|-------------|
D|-------------------4~-----------|----------------|-------------|
A|--------------------------------|----------------|-------------|
D|--4-4-4-4----4-4-4----0-0-0-0---|----2-2-2/12----|------2~-----| X2

     Interlude
G|------R------------------------R-------------------------------|
D|------E------------------------E-------------------------------|
A|------S------------------------S-------------------------------|
D|------T-----------4-4-4-4------T-------------------------------|

     Bridge
G|---------------------------------------------------------------|
D|---------------------------------------------------------------|
A|---------------------------------------------------------------|
D|--4-4---4-4---4-4---4-4---0-0---0-0---2-2----2/12--------------| X4

G|----------------------------------------------------------------|
D|----------------------------------------------------------------|
A|----------------------------------------------------------------|
D|4444666677776666444466667777222244446666777766669999777766662222| X4

    Chorus |-3-|
G|---------------------------------------------------------------|
D|---------------------------------------------------------------|
A|---------------------------------------------------------------|
D|--4~-----6-7-6-4-4-6----0~------2-2-2/12-----------------------| X2

G|---------------------------------------------------------------|
D|-------------------4~------------------------------------------|
A|---------------------------------------------------------------|
D|--4-4-4-4----4-4-4----0-0-0-0----2-2-2/12----------------------| X2

                |-3-|                     1st 3x's  4th time only
G|--------------------------------------|----------|-------------|
D|--------------------------------------|----------|-------------|
A|--------------------------------------|----------|-------------|
D|--4-4-4-4-----6-7-6-4-4-6----0-0-0-0--|-2-2-2/12-|-----2~------| X4

   Ending - Fade out very slowly
G|---------------------------------------------------------------|
D|---------------------------------------------------------------|
A|---------------------------------------------------------------|
D|-4~---------6----7----------0~--------2/12---------------------| X8


| /  slide up
| \  slide down
| h  hammer-on
| p  pull-off
| ~  hold
| +  harmonic
| x  mute note
| ^  bend
Suggest correction
Give kudos to tab author, rate the tab!
1 2 3 4 5
comments
print report bad tab
guest
You may want to rate the tab now too:
select rating
Please do not post tabs as comments. Select "correction" instead!