Oops, an error
Loading. Please wait.

Follow You Home bass

by Embrace
49 views 1 this week
no commentswrite comment
1 2 3 4 5
3 more votes to show rating
add to favorites
×
Save as Personal and add changes to this tab that will be seen only by you. Learn more ›
×
You can save this tab as Personal to edit and correct it or add notes. All changes will be seen only by you. Learn more »
launch autoscroll
font size
0
reset
guitar tuner
edit
Autoscroll
slow
fast
+/-
esc
set tempo
stop
Author
Difficulty
Embrace is definitely my favourite British band
I wonder why there were no bass tabs for Nature's law and Follow you home,which are my favourite
So I tabbed it,and it's quite easy to play.
Made in China , Zhejiang Province by Kasper Tung


G|---------------------------------------------------------------|
D|---------------------------------------------------------------|
A|4-4-4-4-4-4-4-4------------------------------------------------|
E|----------------4-4-4-4-4-4-4-4-6-6-6-6-6-6-6-6-2-2-2-2-2-2-2-2|

Repeat this note until (1:57)

Then repeat this note until (2:27)

G|---------------------------------------------------------------|
D|---------------------------------------------------------------|
A|4-4-4-4-4-4-4-4-4-4-4-4-4-4-4-4-6-6-6-6-6-6-6-6----------------|
E|------------------------------------------------2-2-2-2-2-2-2-2| 

G|---------------------------------------------------------------|
D|---------------------------------------------------------------|
A|---4-(Let ring)------------------------------------------------|
E|---------------------------------------------------------------| 



Guitar solo start (2:57)

G|---------------------------------------------------------------|
D|---------------------------------------------------------------|
A|4-4-4-4-4-4-4-4-4-4-4-4-4-4-4-4-6-6-6-6-6-6-6-6----------------|
E|------------------------------------------------2-2-2-2-2-2-2-2| (x4)

End of song (3:26, same as before) 

G|---------------------------------------------------------------|
D|---------------------------------------------------------------|
A|4-4-4-4-4-4-4-4------------------------------------------------|
E|----------------4-4-4-4-4-4-4-4-6-6-6-6-6-6-6-6-2-2-2-2-2-2-2-2|


play this notes for 2 times

Hope you enjoy it

            
            
Suggest correction
Creating personal tab
Creating personal tab
You can edit any tab online and save it as your Personal.

You can edit, replace or remove any tab part or add personal notes – all changes will be seen only by you.

Personal tabs can be accessed anytime from any device, even offline.
Learn more »
Give kudos to tab author, rate the tab!
1 2 3 4 5
comments
print report bad tab
guest
You may want to rate the tab now too:
select rating
Wanna post a correction for this tab? Suggest correction