Oops, an error
Loading. Please wait.

Good Will Out album tab

version 1
version 1

Album

Whole song

by Embrace
1,732 views 3 this week
no commentswrite comment
1 2 3 4 5
3 more votes to show rating
add to favorites
×
Save as Personal and add changes to this tab that will be seen only by you. Learn more ›
×
You can save this tab as Personal to edit and correct it or add notes. All changes will be seen only by you. Learn more »
launch autoscroll
font size
0
reset
how to read this tab
guitar tuner
edit
Autoscroll
slow
fast
+/-
esc
set tempo
stop
Difficulty
			EMBRACE: THE GOOD WILL OUT
			============================

This chord collection was taken from the We Got Guitar Tab Site, 
and it was then expanded upon from there. Each individual 
contribution has it's own credits.

1:  All You Good Good People
2:  My Weakness Is None Of Your Buisness
3:  Come Back To What You Know
4:  One Big Family
5:  Higher Sights
6:  Retread
7:  I Want The World
8:  You've Got To Say Yes
9:  The Last Gas
10: Fireworks
11: That's All Changed Forever
12: Now You're Nobody
13: The Good Will Out

14: Blind
15: Dry Kids
16: You've Only Got To Stop To Get Better
17: Butter Wouldn't Melt
18: You Don't Amount To Anything - This Time
19: The Way I Do
20: Free Ride
21: If You Feel Like A Sinner
22: Perfect Way
23: Feelings I Thought You Shared
24: Don't Turn Your Back On Love
			

1: ALL YOU GOOD GOOD PEOPLE
===========================

Transcribed by Tak (tk6315@bristol.ac.uk) 
Addition by Neil Wilkinson (Neil.Wilkinson@unn.ac.uk)
Ending by Nick (na6631@bristol.ac.uk)

* GUITAR TUNED DOWN 2 FRETS (DGCFAD tuning)

Chords

G#        466544
C#        X46664
F#        244322

Intro and verse riffs 
by Neil Wilkinson (Neil.Wilkinson@unn.ac.uk)
(adapted from tak's, with some of the piano added)

 G#                C#                   G#              F#
D----4------------------------------|------4---------------------------|
A-------4--------4------6----6-4----|--------4----------7---6---4------|
F-------------5------------6------6-|--------------5---------------6---|
C---------4h6-----------------------|----------4h6---------------------|
G-------------------4---------------|----------------------------------|
D-4---------------------------------|--4-------------------------------|


 F#                C#                   G#                 C#
D----0----0------------------------|------4--------------------------|
A-----------0----------6----6-4----|--------4-------------6---6-4----|
F------1------------------6------6-|--------------5---------6------6-|
C--2-------------------------------|----------4h6--------------------|
G-------------------4--------------|-------------------4-------------|
D----------------------------------|--4------------------------------|


[Verse 1]

G#                                C#                          G#     
I feel like I meant something you always said you need more time

	  F#                                                       
well I'll stay right here and wait for good until I 

C#                    G#
find a love worth mine


[Verse 2: same chords as verse 1]
Some day you've got it coming
it hurts me when I read the signs
so loud and clear that
I make you glad when I'm leaving first and crying


[Chorus]

F#                  C#                 G#
All you good good people listen to me         

G#                                            F#
You're just about done with the way that you feel

		    C#                             G#         
cos nothing rings home enough to dig your heels in

G#                                           F#
You don't have to leave me to see what I mean

		   C#                 G#      C#
All you good good people listen to me


[Bridge]

F#          C#            G#
All I wanna do is find my name upon the line,

F#                C#              G#
before I have to lose this, I want time


[Chorus - same chord sequence as before]

All you good good people listen to me,
You're just about done with the way that you feel
Cos nothing rings home enough to dig your heels in
You don't have to leave me to see what I mean
Lose all your fears they are keeping you down
You don't have to fake it while I'm around
All you good good people listen to me

Repeat:
D ----------------------------------------------------------4--
A ----------------------------------------------6-4---------4--
F -4h6---4h6-4h6-6-6b7-6-4h6----4h6---4h6-4h6-6-----6-4-6------
C ----6---------------------6------6----------------------6----
G -------------------------------------------------------------
D -------------------------------------------------------------

 

2: MY WEAKNESS IS NONE OF YOUR BUSINESS
=======================================

Original transcription by Karim Adab (miquet@thepentagon.com)
Modifications made by Tak (tk6315@bristol.ac.uk)
Tab by Nick (na6631@bristol.ac.uk)

 * GUITAR TUNED DOWN 2 FRETS (DGCFAD tuning)
 
[Verse 1]

C 
Don`t wanna let you down,   

Bbm                     Am
I`ve been lucky I was lost 

D -6----------------
A ----------------5-
F ----5---4---4h5---
C ------5---5-------
G ------------------
D ------------------

	G
Now I'm found 

C                     
You could be the first 

D --------------------------------------------------
A -----6-5-3-5---------6-5-3-5-------------------5--
F ---5---------5-----5---------5s7---5---4---4h5----
C -----------------5-------------------5---5--------
G --------------------------------------------------
D --------------------------------------------------

Bm              Am                      G
in the universe whose glad they watered down 

	F                 G                      F
And sometimes I get the shallow feeling that you lied 

	    G                  Am
I`ll never learn that I can`t win 



[verse 2]

C                     Bbm
Don`t wanna make a row 

		       Am            G                 
You`re doing it's your loss, I`m around 

	 C                     
I don`t mind doing everything 

Bbm                     Am             G
Hallelujah you`re the one come back now 

       F                G                      F
That's why I get the shallow feeling that you lied 

	    G                     Am
That you`re here don`t change a thing 


[Chorus]
	   F           Am
Because my weakness 

		 G          Em
Is none of your business 

		  F           Am
And now it always collects 

		   G           
To one big melting pot 

	    F           Am
And all my weakness 

		G           Em
Is none of your business 

		   F          Am
And now it always collects 

		   G           /
To one big melting pot,   la-la-la (etc.)


[Ending]  C   Dm   Am   G
	  C   Dm   Am   G

This could be our time
This could be our time
This could be our time



3: COME BACK TO WHAT YOU KNOW
=============================

Tabbed by Tak (tk6315@bristol.ac.uk)
Corrections by Karim Adab (Karim@zaki.demon.co.uk)
Tabs + solo by Nick (na6631@bristol.ac.uk)
Second solo tabbed by Neil Wilkinson (Neil.Wilkinson@unn.ac.uk)
  
 * NORMAL TUNING   
 * CAPO ON 1st FRET 

[Chord Voicings]

G   320033    (actually an Ab)
Em  022000    (actually an Fm)
D   xx0232    (actually an Eb)
C   x32010    (actuallt a C#)
Bm  x24432    (actually a Cm)

[1st verse]

      G              Em
Come back to what you know,

     Bm           G     Em
Take everything, real slow,

	Bm             D
I wanna lose you but I can't,

	G
Let you go.

		 Em
Before you interfere,

Bm               G        Em
Let me make it loud and clear,

	 Bm             D
that you got no more to prove.

	G
I'm the fool.


[bridge]
	   Bm            Em
So take it easy, on yourself,

		C                              G
There's nothing new about, declaring how you felt.

	     Em
I'll never let you down,

	 C                                  D           G
Or ever feel the way that I've been fearing now.

D ---------------------------
A ---------------------------
F ---------------------------
C -13-13--11-11--10-10--8-8--
G -13-13--11-11--10-10--8-8--
D -11-11---9--9--8-8--6-6----

[chorus]

       G                Em                  D
Coming back to what you know won't mean a thing.

			 C                 G
Everything that you've done keeps you from me.

		  Em
Now I know that I need more time,

      D              C        G
Come back and let me see your eye.

	    Em               D
I'm coming back to what you know,

		   C                 G
Cos I know that I need it now it's gone.

		   Em
Now I know that I need more time,

      D                        G
Come back and let me see your eye.


    G
So hang on to what you've got,

	G
keep it safe.

D ----------------------------------
A -------3h5------------------------
F -2h4-------2h4-2h4-5h4-2p0-1p0----
C -------------------------------0--
G ----------------------------------
D ----------------------------------

  C
Hang on to what you've got,

	   G      Em
keep it safe from harm.

	D
You'll find.

	C                                 G        D
There's nothing new that we can't leave behind.


[2nd verse]

Come back to what you know,
Take everything, real slow,
I wanna lose you but I got,
Far too high.
To let go,
Now the demon in me knows,
What I knew so long ago.

[chorus]

Coming back to what you know won't mean a thing.
Everything that you've done keeps you from me.
Now I know that I need more time,
Come back and let me see your eye.
I'm coming back to what you know,
Cos I know that I need it now it's gone.
Now I know that I need more time,
Come back and let me see your eye.

So hang on to what you've got,
keep it safe.
Hang on to what you've got,
keep it safe from harm.
We got time.
We got time.

Coming back to what you know won't mean a thing.
Everything that you've done keeps you from me.
Now I know that I need more time,
Come back and let me see your eye.
I'm coming back to what you know,
Cos I know that I need it now it's gone.
Now I know that I need more time,
Come back and let me see your eye.


[outro - same chords as verse]

Come back to what you know,
Take everything, real slow,
I tried to lose you,
But I got,
far too close.

Normal tuning - capo 1st fret
Fret numbers numbered from capo
Nick's Solo:

D ----------------------------------------------------------------------
A ------------3-------------------------------------------------------1-
F -4p2-0--2h4---------0-2--4-4-4p2-0--0h2-0--0h2-0h2--4-4-4p2-0-0-2-4---
C --------------2-0h2---------------------------------------------------
G ----------------------------------------------------------------------
D ----------------------------------------------------------------------

D ----------------------
A -3-3--1-1--0h1-0------
F ------------------2-2-
C ----------------------
G ----------------------
D ----------------------


Capo 1st fret - G actually is G# etc.

Neil's Solo:

  (3.03)
  C                     G                    Em           D               C
e----------------|----------------|--------------|-----------|----------------
b----------------|----------------|--------------|-----------|----------------
G----------------|-------------7\-|--------------|-----------|----------------
D--10s9-7h9p7s5--|--9p7-5--7s9----|-2------5---7s|9-9-9p7-5--|5h7-5--5h7-5h7--
A----------------|----------------|----5s7-------|-----------|----------------
E----------------|----------------|--------------|-----------|----------------

	G                Em          D         C           G
e----|------------|---------|---------|----------|-3-
b----|------------|---------|---------|----------|-3-
G----|------------|---------|7-7-5-5--|4h5-4-2-0-|-0-
D--7s|9-9-9p7-5h7-|5--5-7-9-|---------|----------|-0-
A----|------------|---------|---------|----------|-2-
E----|------------|---------|---------|----------|-3-



4: ONE BIG FAMILY
=================
 
Original transcription by Suzy Manic (SuzyManic@aol.com)
Additions made by James Young (jy6095@bristol.ac.uk)
		  Tak (tk6315@bristol.ac.uk)
	      and Nick (na6631@bristol/.ac.uk)                          
 * GUITAR TUNED DOWN 2 FRETS (DGCFAD tuning)

[Intro]


      Dm                          Dm                                        
D|----------------------------------------------------|
A|--12b13------12b13---12-10----------10-10-10-10--12-|
F|----------------------------------------------------|  [ x8 ]
C|----------------------------------------------------|
G|----------------------------------------------------|
D|----------------------------------------------------|


[Play the top (highest) three strings together and just bend up the 
A string. Also, when Rich plays it, he flicks the pickup switch 
back and forth with his little finger (down on the downstroke, and 
up on the upstroke). This gives it that really ace sounding 
WOOOWWWOOWWWW sound.]


[Bass for intro - also tuned down a whole step]

F|---------------------------------------|
C|---------------------------------------|
G|--3-5-5-3-5----3-5---------------------|
D|-----------------------1--1-2----3-----|



[Verse tab]

    
   Dm                         Dm
D|-------------------------|-------------------------|
A|-------------------------|-------------------------|
F|--5h7--7--7--7--7--7--7--|--5h7--7--7--7--7--7--7--|
C|-------------------------|-------------------------|
G|-------------------------|-------------------------|
D|-------------------------|-------------------------|
		  Get Ready        For the judge in me
    yeah_________________     yeah__yeah__yeah_____


   
   G                        G
D|-----------------------|-------------------|
A|-----------------------|-------------------|
F|-----------------------|-------------------|
C|----5-5-5-5-5-5-5-3----|----5-----3-3------|
G|------------------5----|------3-5-----5-3--|
D|--3--------------------|--3----------------|
	He's coming over        Get on your feet 
    La la la_________       La la la ______                                                                  



Dm              /                      G
 All my goodness is all I've got for you
 
D ------------------------------------------------
A ------------------------------------------------
F ------------------------------------------------
C -----5-5-5-5--5-5-5-5-3-0------5-5-----3-3-0----
G -----------------------------------3h5-------3--
D -3-3-----------------------5-5------------------
		       /                                            
Have I shown you lately what my clan can do


A                        G
I own your arse now by rights yeah


[Chorus]

   Dm                              Dm 
 D|------------------------------|------------------------------|
 A|------------------------------|------------------------------|
 F|------------------------------|------------------------------|
 C|--5/7--7--7--7--7--7--7--7\5--|--5/7--7--7--7--7--7--7--7\5--|
 G|--3/5--5--5--5--5--5--5--5\3--|--3/5--5--5--5--5--5--5--5\3--|
 D|------------------------------|------------------------------|
       We got family                  We got family    

     F                          G
 D|---------------------------|--------------------------|
 A|---------------------------|--------------------------|
 F|---------------------------|--------------------------|
 C|---3--3--3--3--3--3--3--3--|--5--5--5--5--5--5--5--5--|
 G|---3--3--3--3--3--3--3--3--|--5--5--5--5--5--5--5--5--|
 D|---1--1--1--1--1--1--1--1--|--3--3--3--3--3--3--3--3--|

    So when I call you up  get y'all in


Dm             Dm
We got family, we got family

       F                        G
So when I call you up get y'all in



 Dm   /  Dm   /   G   /   G    /


[Verse 2 - same as verse 1]

[chorus]

[Ending]

 Dm    /      /      /    

[End bass - same as for intro.]



5: HIGHER SIGHTS
================
 
Original transcription by Neil Wilkinson (NeilWilk@aol.com)
		  with help from Karim Adab (karim@zaki.demon.co.uk)  
		  Modifications by Tak (tk6315@bristol.ac.uk)
		  Tabs by Nick (na6631@bristol.ac.uk)

 * GUITAR TUNED DOWN 2 FRETS (DGCFAD tuning)
 * CAPO ON FIRST FRET

 / represents the basic timing for the chords.

Chords used:
C   : x32010
Am  : x02210
G   : 320033
F   : 133211

Play the first 8 notes on a barred chord on the 3rd fret (from capo) then 
slide the chord up to the 5th fret for the rest.

D --------------------5---------------------------------3-
A --5-3--5p3-----3-s5-------5--------------6p5------------
F -----------3h5--------5h7---7-5------5-------7p5---7----
C --------------------------------7------7---------7------
G -3---------------------------------5--------------------
D --------------------------------------------------------

C         /    /      Am / / / F /// G
Silence is all that I have to say to you

D ------------------------------------------------
A ------------------------5-----------------------
F ----------------5--------5----------------------
C --5-3-2---2h3s5---5-5--5----5-32---2h3s7-7s4----
G --------3------------------------3-----------3--
D ------------------------------------------------

D --------------------------------0--
A --------------------------------1--
F ----------------5------------------
C --5-3-2---2h3s5---5-5--3-2-3-------
G --------3--------------------0-----
D -----------------------------------

 /    /    /   F     /     /      /      G
Mountains like me and you don't hear the rules
 
/    /    /   F   /   /   /   Am 
about what we can or we can't do

/ G     /      F     /     /     /    G /
I don't want to learn if learning lets you

(F)   /    /    Am / / / C / / / / / /
bring those eyes down with you

 / C     /     /     /    Am
If you truly learn how to cover

/// F   /    /    /     G
You won't forget how it's done

   /    /   /   F    /     /     /     G
then you go and give me a bug I can't beat

 /    /    /   F     /    /    /  Am /
Stuck with the wrongin us inside me

G     /      F    /     /     /      G /
It takes it's time but when it breaks free

(F)      /      Am    /    /    /   C / G /////
Break off those heels twist till you leave

  /    /   F   /  /  / C   /    /    /  Am / /
Then we'll dance those plans we made won't last

    /   F    /   /   /   /   /   /
They'll wear and fade like fools

 /  C   /    /    /     Am /
Too young to run out of time

 / /  F     /      /      /  C///////Am//////
We'll always set our sights  high

  / C     /     /     /    Am
If you truly learn how to cover

/// F   /    /    /     G
You won't forget how it's done

   /    /   /   F    /     /    /     G
then you go and give me a bug I can't beat

 /    /    /   F     /    /    /   Am /
Stuck with the wrongingness inside me

G     /      F    /     /     /      G /
It takes it's time but when it breaks free

(F)      /      Am    /    /    /   C/ G /////
Break off those heels twist till you leave

  /    /   F   /  /  / C   /    /    /  Am / /
Then we'll dance those plans we made won't last

    /   F    /   /  /    /    /   /
They'll wear and fade like fools

 /  C   /    /    /    Am / / 
Too young to run out of time

 / F   /   /   /   /   /   /
We lose our way, we'll dance

   /  C    /    /    /   Am  /  /
Those plans we made won't last

   /    F   /  /  /   /   /   /        
They'll wear and fade like fools

  / C   /    /    /     Am / /
Too young to run out of time

   /  F  / / / / / / / / / / /  C / / /  Am / / / F///////     
We'll always set our sights too high.....

Capo on 1st Fret
Numbered from capo

D --------------------------------------------------------------------------------
A 5p3--5p3---------------5------------------------------------6p5-5p3-----3h5-3s1-
F ---------5-----5---5h7--7-5-7----7--------10-10p8--9p8--3h5---------3h5---------
C -----------6s7---7-----------------7-7s10---------------------------------------
G -------------------------------5------------------------------------------------
D --------------------------------------------------------------------------------

then strum a C

	    

6: RETREAD
==========

Transcribed by Tak (tk6315@bristol.ac.uk)
Corrections and ending by Nick (na6631@bristol.ac.uk)

 * GUITAR TUNED DOWN 2 FRETS (DGCFAD tuning)

[Chord Tab]
	C  = x32010
	Dm = x00231
	F  = 133211
	Am = x02210

[Verse 1]

Dm                   Am
My girl is just a retread 

   F                          C
I lost her when I hit the brakes 

	      Am           
Our love hits science fiction levels 

	F                           C
Now I`m bending like I`ve made a mistake 


 [Main verse Riff]

D|-------------------------|---------------------|
A|---------------8---------|-----------8---------|
F|-----5---5-7~9---9-7-5---|-5---5-7~9---9-7-5---|
C|-5h7---7---------------7-|---7---------------7-|
G|-------------------------|---------------------|
D|-------------------------|---------------------|
				Here I stand afraid 

D|-------------------|-----------------------|
A|-----------8-------|-------------8---------|
F|-5---5-7~9---9-7-5-|---5---5-7~9---9-7-5---|
C|---7---------------|-7---7---------------7-|
G|-------------------|-----------------------|
D|-------------------|-----------------------|
			     With no more to say 

D|-------------------------|-------------------------|
A|---------------8---------|---------------8---------|
F|-----5---5-7~9---9-7-5---|-----5---5-7~9---9-7-5---|
C|-5h7---7---------------7-|-5h7---7---------------7-|
G|-------------------------|-------------------------|
D|-------------------------|-------------------------|


 
[Chorus (Just do the chords - F C Am F C C Am)]

	  F       C     Am
And now I feel so insecure 

	F                    C
I can`t save something I feel so much for 

	  Am   F                      C
Won`t you stay, and leave a light for me 

 [Chorus Outro Riff]

D|---------|---------|---------|---------|
A|---------|---------|---------|---------|
F|---5h7-5-|---5h7-5-|---5h7-5-|-7-4-4h5-|
C|-5-------|-5-------|-5-------|---------|
G|---------|---------|---------|---------|
D|---------|---------|---------|---------|


[verse 2 - play verse chords once then riff]

Now I found myself redeemed cos noones seen the bad in me 
Or been where I`ve been 
And not turned to leave

[chorus]

	   F      C    Am
And now I feel so insecure 

      F                       C       
I can`t save something I feel so much for

	  Am
Won`t you stay 

	    F                           C       Am              F
You know if you had a wing you`d be the last to know you could fly 

			   C        
He strokes your hair to keep you down 

	 Am
Will you fight?

	     F
I'll see you fight

	 Am                 F
Will you fight?     Will you fight?

	 Am                 F
Will you fight?     Will you fight?

	 C                  F
Will you fight?     Will you fight?

	 C                  F
Will you fight?     Will you fight?


F                      
The good will out and I`ll come clean 

 C                Am
There`s nothing in between 

F             Dm            C
You and me so let me go my way. 

D -----------------------------------------
A ---------5---5h6p5-----------------------
F -5---5-------------7-5--5--5--s9-7-s5-4-- then strum a C
C ---7----7--7-----------7--7-7------------
G -----------------------------------------
D -----------------------------------------

7: I WANT THE WORLD
===================

Tab by Neil (Neil.Wilkinson@unn.ac.uk)
Solo by Nick (na6631@bristol.ac.uk)
 
* GUITAR TUNED DOWN 2 FRETS (DGCFAD tuning)

This song is based on the same chord progressions, but they slightly
change all of the time - so bear with me. There is a pattern but its
a bit too complicated to explain, so I'll just write it all out as it goes.  You'll get the idea.

Intro

G--------------------------------------------------
D--6--6-6-X-4-6-6-6-X-/13--13-13-X\9--9-9-9-9-X-X--
A--6--6-6-X-4-6-6-6-X-/13--13-13-X\9--9-9-9-9-X-X--
E--4--4-4-X-2-4-4-4-X-/11--11-11-X\7--7-7-7-7-X-X--

G----------------------------------------------------
D--6--6-6-X-4-6-6-6-X--13--13--13--13--11-11-11-11-X-
A--6--6-6-X-4-6-6-6-X--13--13--13--13--11-11-11-11-X-
E--4--4-4-X-2-4-4-4-X--11--11--11--11--9--9--9--9--X-

Play this 4 times, but the last time play the 13|13|11 for
twice as long, and the 11|11|9 for four times as long.

Then this

G-----------------------------------------
D--4--6-6-6-X/9-9-X-X\4-4-4-X-/11-11-11-X-
A--4--6-6-6-X/9-9-X-X\4-4-4-X-/11-11-11-X-
E--2--4-4-4-X/7-7-X-X\2-2-2-X-/9--9--9--X-

G------------------------------------------
D--4--6-6-6-X/9-9-X-X\4-6-6-X-/9-9-9-X--6~-
A--4--6-6-6-X/9-9-X-X\4-6-6-X-/9-9-9-X--6~-
E--2--4-4-4-X/7-7-X-X\2-4-4-X-/7-7-7-X--4~-

Verse 1

"Maybe.."

G-------------------------------------
D-6-6-6-X/9-9-X-X\4-4-4-X-/11-11-11-X-
A-6-6-6-X/9-9-X-X\4-4-4-X-/11-11-11-X-
E-4-4-4-X/7-7-X-X\2-2-2-X-/9--9--9--X-

G--------------------------------------
D--4--6-6-6-X/9-9-X-X\4-6-6-X-/9-9-9-X-
A--4--6-6-6-X/9-9-X-X\4-6-6-X-/9-9-9-X-
E--2--4-4-4-X/7-7-X-X\2-4-4-X-/7-7-7-X-

"And I don't want..."

B / / / C# / / /

G--------------------------------------
D--4--6-6-6-X/9-9-X-X\4-6-6-X-/9-9-9-X-
A--4--6-6-6-X/9-9-X-X\4-6-6-X-/9-9-9-X-
E--2--4-4-4-X/7-7-X-X\2-4-4-X-/7-7-7-X-

G-----------------------------------------
D--4--6-6-6-X/9-9-X-X\4-4-4-X-/11-11-11-X-
A--4--6-6-6-X/9-9-X-X\4-4-4-X-/11-11-11-X-
E--2--4-4-4-X/7-7-X-X\2-2-2-X-/9--9--9--X-

G--------------------------------------
D--4--6-6-6-X/9-9-X-X\4-6-6-X-/9-9-9-X-
A--4--6-6-6-X/9-9-X-X\4-6-6-X-/9-9-9-X-
E--2--4-4-4-X/7-7-X-X\2-4-4-X-/7-7-7-X-

"And I don't want..."

B / / / C# / / /

G--------------------------------------
D--4--6-6-6-X/9-9-X-X\4-6-6-X-/9-9-9-X-
A--4--6-6-6-X/9-9-X-X\4-6-6-X-/9-9-9-X-
E--2--4-4-4-X/7-7-X-X\2-4-4-X-/7-7-7-X-

"yeah!.."

G# / / / F# / / / B / / / C# / / /     X 2


Solo:
D -----------------------------------7---------------------------7--------
A ------------------------------7--9---9-7-9--9-7-9------7-7-9-7---9-7-9--
F --------------------------6h8----------------------6h8------------------
C ----4-6-----4h6---------------------------------------------------------
G -4-6----4h6-------------------------------------------------------------
D ------------------------------------------------------------------------
		   ?????????

solo chords

G-----------------------------------------
D--4--6-6-6-X/9-9-X-X\4-4-4-X-/11-11-11-X-
A--4--6-6-6-X/9-9-X-X\4-4-4-X-/11-11-11-X-
E--2--4-4-4-X/7-7-X-X\2-2-2-X-/9--9--9--X-

G--------------------------------------
D--4--6-6-6-X/9-9-X-X\4-6-6-X-/9-9-9-X-
A--4--6-6-6-X/9-9-X-X\4-6-6-X-/9-9-9-X-
E--2--4-4-4-X/7-7-X-X\2-4-4-X-/7-7-7-X-

B / / / C# / / /

G--------------------------------------
D--4--6-6-6-X/9-9-X-X\4-6-6-X-/9-9-9-X-
A--4--6-6-6-X/9-9-X-X\4-6-6-X-/9-9-9-X-
E--2--4-4-4-X/7-7-X-X\2-4-4-X-/7-7-7-X-

"Maybe.."

G-----------------------------------------
D--4--6-6-6-X/9-9-X-X\4-4-4-X-/11-11-11-X-
A--4--6-6-6-X/9-9-X-X\4-4-4-X-/11-11-11-X-
E--2--4-4-4-X/7-7-X-X\2-2-2-X-/9--9--9--X-

G--------------------------------------
D--4--6-6-6-X/9-9-X-X\4-6-6-X-/9-9-9-X-
A--4--6-6-6-X/9-9-X-X\4-6-6-X-/9-9-9-X-
E--2--4-4-4-X/7-7-X-X\2-4-4-X-/7-7-7-X-

B / / / C# / / /

G--------------------------------------
D--4--6-6-6-X/9-9-X-X\4-6-6-X-/9-9-9-X-
A--4--6-6-6-X/9-9-X-X\4-6-6-X-/9-9-9-X-
E--2--4-4-4-X/7-7-X-X\2-4-4-X-/7-7-7-X-

"yeah!.."

G# / / / F# / / / B / / / C# / / /     X 2

G-----------------------------------------
D--4--6-6-6-X/9-9-X-X\4-4-4-X-/11-11-11-X-
A--4--6-6-6-X/9-9-X-X\4-4-4-X-/11-11-11-X-
E--2--4-4-4-X/7-7-X-X\2-2-2-X-/9--9--9--X-

G--------------------------------------
D--4--6-6-6-X/9-9-X-X\4-6-6-X-/9-9-9-X-
A--4--6-6-6-X/9-9-X-X\4-6-6-X-/9-9-9-X-
E--2--4-4-4-X/7-7-X-X\2-4-4-X-/7-7-7-X-

	     DGCFAd
Bridge: (E=77999X)

"And all...."

E / / / B / / / G#m / / / E / / / B / / / G#m / / /

E / / / / / / / / / / / B / / / G#m / / / E / / /

B / / / G#m / / / E / / / / / / /

G-----------------------------------------
D--4--6-6-6-X/9-9-X-X\4-4-4-X-/11-11-11-X-
A--4--6-6-6-X/9-9-X-X\4-4-4-X-/11-11-11-X-
E--2--4-4-4-X/7-7-X-X\2-2-2-X-/9--9--9--X-

G--------------------------------------
D--4--6-6-6-X/9-9-X-X\4-6-6-X-/9-9-9-X-
A--4--6-6-6-X/9-9-X-X\4-6-6-X-/9-9-9-X-
E--2--4-4-4-X/7-7-X-X\2-4-4-X-/7-7-7-X-

B / / / C# / / /

G--------------------------------------
D--4--6-6-6-X/9-9-X-X\4-6-6-X-/9-9-9-X-
A--4--6-6-6-X/9-9-X-X\4-6-6-X-/9-9-9-X-
E--2--4-4-4-X/7-7-X-X\2-4-4-X-/7-7-7-X-

Repeat last part about 10 times I think


8: YOU'VE GOT TO SAY YES
========================

Tabbed by Tak (tk6315@bristol.ac.uk)
with help from James Young (jy6095@bristol.ac.uk)

* GUITAR TUNED DOWN 2 FRETS (DGCFAD tuning)
 * CAPO ON THE FIRST FRET

[Intro and verse riff]

|---------------------------------|
|---------------------------------|
|-----------------------0---------|
|---------------------2-------0---|
|---0-7---5---3-5---0-------3-----|
|-3-----------------------------3-|


[verse 1]

C                 Am
You've gotta say yes

C
How can you have doubts

Am
The views too good to jump

     C                    Am    C
Now let me talk you down

Am        G
Come On

		     
Like butter wouldn't melt in your mouth
Man you've done us proud
No you you're not with us
You please yourself, self, self
Come On

[chorus]

	  Am                     G
With your foolish lies and your alibis

       Am                    G
I can see my works almost done

	 Am                G                       Am
I won't stand aside as you wash your life down the drain

	     G
Before its begun

		  Am       G
Cos you, you know better

	    Am                    G 
Cos you're hooked and your fucked without me


You've gotta say yes
How can you have doubts
The views too good to jump
Now let me talk you down
Come On

With your foolish lies and your alibis
I can see my works almost done
I won't stand aside as you wash your life down the drain
Before its begun
With your foolish lies and your foolish pride
I can see my works almost done
I won't stand aside as you wash your life down the drain
Before it's begun
Cos you, you know better
Cos you're hooked and your fucked without me

yeah yeah yeah yeah
You've gotta say yes


9: FIREWORKS
============

Original transcription by Karim Adab (miquet@thepentagon.com)
			and SuzyManic (SuzyManic@aol.com)
	   Additions by Tak (tk6315@bristol.ac.uk)
	   and solo by Collen Chandler (hi0u70dd@liverpool.ac.uk)
	   Corrections by Nick (na6631@bristol.ac.uk)

 * GUITAR TUNED DOWN 2 FRETS (DGCFAD tuning)


[Intro]  C  Am  Em  C Am  Em  C

[Verse 1]

C                   Am
I stretched over to reach you 

	  Em                   C
I tried to meet you, I've been wrong 

	  Am                   Em
Now the fireworks in me are gone 

	    C
It's time I realised 

[Verse 2 - same chords]
My girl you make all the right moves 
And sees through all my wrongs 
When the fireworks in me are gone 
Then I realised 


[Chorus]

	    F                 Em                  
And I won't need convincing 

	   G                C                      Am
I've seen enough to want to try and change things 

			      G
You fell in love, I fell in line 

	      F                
I thought I found my place 

Am                         G
Before I knew how much it cost to play it safe 

F                                C
Have I let you, I never let you down. 

  
[Bridge]    C   Am   Em   G

[Verse 3 - same as verse 1]
I work all day and I won't fight 
When it feels right and its wrong 
When the fireworks in me are all gone 
Then I realised 


[Chorus]
	    F                 Em                  
And I won't need convincing 

	   G                C                      Am
I've seen enough to want to try and change things 

			      G
You fell in love, I fell in line 

	      F                
I thought I found my place 

Am                         G
Before I knew how much it cost to play it safe 

F                                C
Could I leave you, I'd never let you down. 


[Ending]   C   Am    Em   C  


D -----------------------------
A --5h6p5---8--8/10--------5---
F 5-------5----------5--7------

D -----------------------------
A 10/12---8-------5--865-5--5-5
F ----------5--7---------------

D -----------------------------
A 5------5-5/10/12-8-----5-865-
F -7542--------------5-7-------
C -----------------------------

		 x2
D ----------------|
A 5-6-5---5---5---|  
F ------7---7---5-|

D --------------8-|
A 5-6-5---5---5---|
F ------7---7-----|

he does that at the end of Fireworks, after the second chorus, and 
he does the first part (first three tabs) after the first chorus.      



10: THE LAST GAS
================

Chords taken from 
J's Embrace Website (http://ds.dial.pipex.com/jmcna/embrace.html)

Solo tabbed by Neil Wilkinson (Neil.Wilkinson@unn.ac.uk) 
Alternative solo tabbed by Nick (na6631@bristol.ac.uk)

 * GUITAR TUNED DOWN 2 FRETS (DGCFAD tuning)

Intro

E Em G F# E

	       B      A
It's the way I feel

	       G      E
It's the way I feel

B                 A
I'm in your hand, do as we planned

G                   E
Show me the way you kneel

	  B      A              G      E
Don't you kneel, it's the way I feel

B
Hungry for thirst

A
Full fit to burst

G                   E
Give me a go at the wheel

G                        E
Cos I, I just don't know which way I should turn

     B                      A              G       E
Look around my friend we'll leave them all behind

	  B              A                G       E
I'm gonna take a look at all the things I find

	  B   A      G          E
So take a bow, leave me out.

	       B      A
It's the way I feel

	       G      E
It's the way I feel

	    B     A
I'm in your hand, do as we planned

G                   E
Show me the way you kneel

	  B      A              G      E
Don't you kneel, it's the way I feel

B
Hungry for thirst

A
Full fit to burst

G                            E
Give me, give me a go at the wheel

B          D         G          E
Last Gas

B          F#        G          E
Last Gas

B          D         G          E
Last Gas

B          F#        G          G
Last Gas

[Solo - tabbed by Neil Wilkinson]

Here's a pretty shit attempt at the solo.  The best way to learn it is
to record the solo from the CD into cool edit and loop it.  So your 
ears get used to it.

Part 1

D--5h7p5---5-7--7---5h7p5---5-7--7---5h7p5----------just-play-------
A--------7----------------7----------------7-5-7-5-something quick--
E-------------------------------------------------around low E G A C

Part 2
					      (-nearly right--)
D----------------------------5h7p5---5---5h7p5----------------
A------------------5h7p5-3-5-------7-----------7-5-3-5-3-5-0--
E--3h5p3-0-3-5-5---------------------------------------------3

Order : 1 2 1 1

...or Nick's attempt!...

D -5h7-5---5-7--5h7-5---5-7-5h7-5---5-----------------------5--
A -------5------------7-----------7---7-5-7-5-----------5-5----
F ----------------------------------------------------7--------
C --------------------------------------------5-7-5-7----------
G -------------------------------------------------------------
D -------------------------------------------------------------

D --------------------------7-5---5-----------------------5----
A ------------------------------7---7-5-7-5-7-5-------5-5------
F --------------------------------------------------7----------
C -5h7-5---5-7--5h7-5---5-7---------------------5-7------------
G -------7------------7----------------------------------------
D -------------------------------------------------------------

D ------------------------------------------------
A ------------------------------------------------
F ------------------------------------------------
C -----9---9-------12-----------------------------
G ---9----9-----12----12-----12----12-11----------
B -7---------10-----------10----10-------12-10-7--

Look around my friend we'll leave them all behind
I'm gonna take a look at all the things I find
So take a bow, leave me out.
Last Gas
Last Gas
Last Gas
Last Gas
Look around, Look around, Look around your mind
Look around, Look around, Look around your mind
Look around, Look around, Look around your mind
Look around, Look around, Look around your mind



11: THAT'S ALL CHANGED FOREVER
==============================

Transcribed by Tak (tk6315@bristol.ac.uk)
Tab by Nick (na6631@bristol.ac.uk)

 * GUITAR TUNED DOWN 2 FRETS (DGCFAD tuning)

[Verse 1]
	      G    Am
There's gotta be something 

       Em            C
Worth having, worth all this 

       G           Am
In my life at last one thing 

     Em         C
That I can go along with  


[Chorus]

G                     B 
I lost half of what I could have been 

       Em                     C
When I realised you weren't meant for me

      G                             Am
Now I wonder which good feeling to go with 

       C                       G
Til I realised that thats all changed 

    Em        C
For good    Forever 

D -----------------------------------------------------------------------
A -----3-------------3---------------------------------------------------
F -4-5---5-4-2p0---4-5---5-4-2p0-----0--0-2-0---0--2-0---0--2h4p2-0------
C ---------------------------------2----------2--------2------------2h4--
G -----------------------------------------------------------------------
D -----------------------------------------------------------------------

[Verse 2 - same chords as verse 1]
There's gotta be someone 
I can count on and fend for 
In my life at last someone 
To make me surrender 

[Chorus]

G                  B
For half of what I should have been 

	Em              C
Walks away if you walk out on me

      G                             Am
Now I wonder which good feeling to go with 

       C                       G
Til I realised that that's all changed 

     C
For good 

    Em                        C
No more worries or doubts the good will come out 

      G            Em       C
I've changed,  for good  forever 

		   Am        G             Em       C
Say you'll see how much I've changed  for good,  forever

	       Am        G            Em         C     Am
Wait until you see I've changed,  for good, for good


[Outro - chords will be added soon.]

Just wait until you see
how much a change could make you see
Cos you don't know better than me 





12: NOW YOU'RE NOBODY
=====================   

Tabbed by Nick (na6631@bristol.ac.uk)
 
 * GUITAR TUNED DOWN 2 FRETS (DGCFAD tuning) 
 * CAPO 1st FRET

D ------------------------------------------------
A ----0---0-0h1-1-1s3-3----0---0-0h1-0---0--------
F ------0--------------------0---------2---2-0----
C ---0--------------------0--------------------2--
G ------------------------------------------------
D -3--------------------3-------------------------

13: THE GOOD WILL OUT
=====================

Tab by Nick Aronson (na6631@bristol.ac.uk)
 
 ** GUITAR TUNED DOWN 2 FRETS (DGCFAD tuning) **
 
E                       A
I saw you sing out your praise

	    F#m
Come on and lay

    B
The sunshine of my life's been burned

      A              E    A    E
And I didn't see the way

E
Swallow down your pride

	       A
It's wrong and I'll

	 F#m   A
Help you hide

A      F#m                  E
I feel sincerely you're too much

       B
You're too much

A                      F#m
All at the same time

   E
Oh I

	  B
Know much more

	  C#m
Of what I can

		  A
Than what I can't do

	    A
If I should fail

	  F#m
I'm gonna nail

	     E
The blame on you

       A             F#m
All my blame on you

E
Get it wrong and it makes you sore

    A
But you're

      F#m      A
Never right

A        F#m                E
I see it clearly you're too much

       B
You're too much

      A                     F#m
We're all on the same side

	   E
There must be a time

		 B
Between the well meaning

	 C#m
When the good will come out

    A
And start the healing

    E
You won't know

		B
How well you've played

	     A      F#m      E
Until you've won

E
And if at first you find

    B
You can't imagine

    C#m
How good can heal

		A
When you've got nothing worth healing

    E
You won't know

		B
How well you're made

	     A      F#m
Until you're done

	     E
All you have is gone

    A                       F#m
The good will come out

    A                       F#m
The good will come out

    A                       F#m
The good will come out

Outro has same chords as chorus


Part 1:

D -------------------------------------------------------------
A -------------------------------------------------------------
F -------------------------------------------------------------
C -----2---2h4-6-4-2-------2---2h4-6-4-2-------2-2---2h4-6-4-2-
G -2h4---4-------------2h4---4-------------2h4-----4-----------
D -------------------------------------------------------------

D ------------------------------------------------------------
A ------------------------------------------------------------
F ------------------------------------------------------------
C -7-6-4-2--2h4-6-4-2-----------------------------------------
G ------------------------------------------------------------
D ------------------------------------------------------------

Part 2:

D ------------------------------------------------------------
A ------------------------------------------------------------
F ------------------------------------------------------------
C -----2---2h4-6-4-2-------2---2h4-6-4-2----------------------
G -2h4---4-------------2h4---4--------------------------------
D ------------------------------------------------------------

D ------------------------------------------------------------
A ------------------------------------------------------------
F ------------------------------------------------------------
C -7-6-4-2--2-----2h4-2------2h4-2--2h4-6-4-2-----------------
G ------------2h4--------2h4----------------------------------
D ------------------------------------------------------------

Repeat parts 1 and 2 alternately.


14: BLIND
=========

Tabbed by Tak (tk6315@bristol.ac.uk)
Corrections by Collen Chandler (hi0u70dd@liverpool.ac.uk)

 ** GUITAR TUNED DOWN 2 FRETS (DGCFAD tuning) **

[Tab for intro]

[Opening riff - play once]
   
  G                           C                         
D--------------------------|--3--3--3--3--3--3--3--3----|
A------3--3-----3--3-----3-|--3--5--5--3--5--5--3--5----|
F------4--4-----4--4-----4-|--3--5--5--3--5--5--3--5----|
C---5--5--5--5--5--5--5--5-|--3--5--5--3--5--5--3--5----|
G---5--5--5--5--5--5--5--5-|--3--3--3--3--3--3--3--3----|
D---3--------3--------3----|----------------------------|


[Main Riff]                                                   

      G                       C                      
D--3-----------------------|--3--3--3--3--3--3--3--3----|
A--3-----3-----3--3-----3--|--3--5--5--3--5--5--3--5----|
F--3-----4-----4--4-----4--|--3--5--5--3--5--5--3--5----|
C--5--5--5--5--5--5--5--5--|--3--5--5--3--5--5--3--5----|
G--5--5--5--5--5--5--5--5--|--3--3--3--3--3--3--3--3----|
D-----3-----3--------3-----|----------------------------|



[Intro: Play opening riff once, then repeat main riff six times]

					   
F                       C                      
Next time I run gonna open my eyes I've been


(then play main riff twice) 

G   C    G    C 
Blind    Blind


[Verse 1]

G                     C                        Bb            
You've gone too far, you've been murder right from the start 

C                         G                 C                   Bb              
You say we'd never be crowbarred apart its time I showed you how wrong you are 


C                          G                       
.......Now something that I said must have got your bell ringing 


Bb            C 
Engulfophobia man

C                      G                C           Bb      C
You'd better make your start, .... go on lay down your heart 


[Chorus - this bit's really dodgy and almost certainly needs correcting]


C              D                  G              C               A
You're not immune, no no-one's immune from the fight you feel inside 

	    D                       G             C            A
What do you do when you don't get through you just run away and hide 

    E        Eb               G  [Play main riff G C G C..]
And I won't let you drag me down (wap bada ba bap ba bada badda ba, etc)


[live version solo]

D------------------------------|---------------------------------|
A------------------------------|---------------------------------|
F------------------------------|---------------------------------|
C--5--3--------5---3-----------|---------------------------------|
G--------5-3----------5--3-----|-6--6-6-6-6-5-3-------5-5-3-5-5-3|
D------------3-------------3-6-|---------------------------------|

D------------------------------|---------------------------------|
A------------------------------|---------------------------------|
F------------------------------|---------------------------------|
C--5--3--------5---3--5--3-----|---------------------------------|
G--------5-3-------------------|-6--6-6-6-6-5-3------------------|
D------------3-------------3-6-|---------------------------------|




[Verse 2 - same as verse 1]
You'll soon be gone, any bright ideas you have are wrong 
It makes it easy knowing everyone has a smaller version of what I've got 
Now something that I said must have got your bell ringing 
Engulfophobia man
You'd better make a stand 
Go on lay down your hand   

[Chorus again]
You're not immune, no no-one's immune 
From the fight you feel inside 
What do you do when you don't get through 
You just run away and hide 
If I gotta choose then I'm gonna choose 
I'm gonna run run run for my life 
Cos I won't let you trap me down

[Ending - main riff, G C G C...]



15: DRY KIDS
============

Transcribed by Tak (tk6315@bristol.ac.uk)
corrections by James Young (jy6095@bristol.ac.uk)
Cheers to Karim Adab (miquet@thepentagon.com)
      and SuzyManic (SuzyManic@aol.com)


** NORMAL (EBGDAE) TUNING WITH CAPO 2ND FRET **

[Main riff]
Tabbed out from the live version from the ICA gig on 
CD2 of Come Back To What You Know

   C                                  G
|----------------------------------|----------------------------------|
|----------1-----------------------|-/---------3-----------3----------|
|--------------0-------0---------0-|-/-----4-------4---5------5-4---4-|
|------2-----------2-------2-------|-/-5--------------------------5---|
|--3---------------------------3---|----------------------------------|
|----------------------------------|----------------------------------|

  
  Am                              F
|-------------------------------|-------------------------------|
|---------5---------------5-----|-------------------------------|
|-----5-------5-------7-------5-|-------------------------------|
|-7---------------7-------------|--3----------------------------|
|-------------------------------|-------------------------3h5p3-|
|-------------------------------|---------------------3-5-------|


[Intro - play riff once]

[chords]

      C        G
We`re dry kid     

			     Am                  F
There`s nothing you`ve got I want but you go and leave 

       C              G
So you keep it locked in 

		     Am                           F
We murder each other each day knowing we`d never be 

		 C 
crowbarred apart

       G            Am     F
And we tried for so long 

	  C         G
To reach eleven on   

		  Am                       F
a scale of one to ten, but we never get so far 

[same chord sequence]
Undone,
you`re out of my system learning how learning how to live with 
how it feels 
And we tried for so long 
To reach eleven on a scale of one to ten but we never get so far 
Me and you 

[ending - just repeat this riff below.]


   C                                  G
|----------------------------------|----------------------------------|
|----------1-----------------------|-/---------3-----------3----------|
|--------------0-------0---------0-|-/-----4-------4---5------5-4---4-|
|------2-----------2-------2-------|-/-5--------------------------5---|
|--3---------------------------3---|----------------------------------|
|----------------------------------|----------------------------------|
								
  
  Am                              F                G
|-------------------------------|----------------------------------|
|---------5---------------5-----|----------1-----------------3-----|
|-----5-------5-------7-------5-|------2-------2---------4-------4-|
|-7---------------7-------------|--3---------------3/5-------------|
|-------------------------------|----------------------------------|
|-------------------------------|----------------------------------|
   

[chords]

C   G

Am                            F  G
should have never left the start 

	  C   G
Me and you  

Am                         F    G
should have never got this far. 


16: YOU'VE ONLY GOT TO STOP TO GET BETTER
=========================================

Tabbed by Collen Chandler    

The only problem is all of the wah-wah guitar that sours in the background 
all the way through it - impossible to tab (well, on my acoustic guitar anyway!)
but ive got the framework for the song down, i think. The D could be a Dsus2, 
and the A could be an Asus2, but I doubt it quite strongly because Embrace never
seem to use these types of chords.
So, here ya go, (using your lyrics with added "a-aaa"s which are 
necessary to show chord changes):

Right, CAPO 1st fret, or 3rd if operating on dropped D as mine always 
seems to be these days...

INTRO (Riff1):

F
C
G#         2        2 0      0h2
Eb     0h2     0h2         0
Bb  0                    0
F                        

Riff2:

F
C
G#        0     0
Eb    2     3     2  0
Bb
F   3                    3


Riff3:

F
C
G#       0      0   0 0 0 0
Eb     0      0     0 0 0 0
Bb                  2 2 2 2
F    0       3      3 3 3 3

Intro goes:

Riff1 four times
Riff2 once
Riff1 once
Riff3 once
Riff1 twice

then:

A                 G               A
With every single step I take I`m leaving 
G                           A
   Will you get your story told 
E                   G
Stealing light from falling stars 
					A     G
The devil that you know knows where you are a-aaa
			  A      G
Sell your soul, you`ll go far, a-aaa
A                  G               A
You`ve only got to stop to make it easy 
G                           A
   We were born without the brakes 
E               G
What we like we say we like 
					A       G
Like when you should hate and make your name, a-aaa
			 A        G
If I seem down then look again, a-aaa 


CHORUS:
	      A                      G
You've got to stop to make it better 
	      D                    A
And you don`t feel it so you do it again 
G
I don`t need your labels 
			 D      A
You can use what`s in my naaaaaame

Repeat chorus...then

  G
a-aaa
			 A        G
If I seem down then look again, a-aaa 

A G D A G G D A

A G D A G G D A G

Repeat chorus

A G A G A G A to fade...



17: BUTTER WOULDN'T MELT
========================

Chords by Nick (na6631@bristol.ac.uk)

Capo 1st fret

G  Am

G                    Am            G Am
Butter wouldn't melt in your mouth 

C         Bm        Am
Someone said that you'd played around

	   C          Bm         Am
and that's why me and him had to go out

    Am
and straighten things out because

G                    Am            G Am
Butter couldn't melt in your mouth

C       Bm      Am
My time girl is new in my life
	   C         Bm        Am
that don't mean that you're on trial
C          Bm         Am
when those fools come calling on you
	   C           Bm       Am
don't feel down 'cause you have nothing to prove
     Am                          G           Am
they don't see you through these eyes, I realised

G Am G Am
C Bm Am
C Bm Am
C Bm Am
C Bm Am Am
G Am
G Am
C Bm Am
C Bm Am
C Bm Am
C Bm Am

18: YOU DON'T AMOUNT TO ANYTHING - THIS TIME
============================================

Chords by Nick Aronson (na6631@bristol.ac.uk)

Am* = barred Am (577555)

Intro
E G# C#m E Am*

E
I don't want to stay forever
G#             C#m
Lift a hand to make you better
E                                   Am*
You don't amount to anything - this time

	E
Give it in, before you lose control again
G#            C#m
And now we'll never be the same
E                                Am*   
You amount to nothing and you're never around

E
Say you feel the way I do
E                          Bm Am   E
Everything is beautiful outside tonight
Bm              Am          E
I know it's all over, it's alright
Bm           Am            E
You're gonna change the way you say my name
	     Bm            Am         E  
It's for the best, for the rest of my life

You don't want to learn your lesson
Bow your head to someone better
Loneliness will have to see you right
Let me win, before I lose control again
No you'll never make the grade
Don't amount to anything, not in my life

Say you feel the way I do
Everything is beautiful outside tonight
I know it's all over, it's alright
You're gonna change the way you say my name
It's for the best, for the rest of my life


19: THE WAY I DO
================

Tabbed by Nick (na6631@bristol.ac.uk)

 * NORMAL TUNING  

e -------------------------------0-----------------------------------
B -------------------0---------0---0---------4-----------------------
G -------0---------0---0-----0-------0-----4---4---------------------
D -----0---0-----0-------0-2-------------5---------------------------
A ---2-------2-2-----------------------6-----------------------------
E -3-----------------------------------------------------------------
   When your mind is safe  When you're just out to get

e -------------------------------------------------------------------
B -------1-----------0-----------1-----------0-----------------------
G -----0---0-------0---0-------0---0-------0---0---------------------
D ---2-------2---0-------0---2-------2---0-------0-------------------
A -3-----------2-----------0-----------2-----------------------------
E -------------------------------------------------------------------
   Things of which I don't know I guess you're gonna go

e -------------------------------------------------------------------
B -------1-----------0-----------1-----------0-----------------------
G -----0---0-------0---0-------2---2-------0---0---------------------
D ---2-------2---0-------0---2-------2---0-------0-------------------
A -3-----------2-----------0-----------2-----------------------------
E -------------------------------------------------------------------
    And find those things I don't do But you know I know it's true 
   
e -------------------------------2----------------------------------
B -------1-----1-----1---------1---1--------------------------------
G -----0---0-----0-----0-----2-------2------------------------------
D ---2-------2-----2-----2-0----------------------------------------
A -3----------------------------------------------------------------
E ------------------------------------------------------------------
    Feels like all I know is not good

e -------0---------0-----------0------------------------------------
B -----1---1-----0---0-------1---1----------------------------------
G ---0---------0-------0---0-------0--------------------------------
D ------------------------------------------------------------------
A -3---------2-----------0------------------------------------------
E ------------------------------------------------------------------


So take it easy,
And get your glut shoes on, 
Make like you've nothing to loose,
It will help you choose,
Cos I love you baby, 
Well it seems that lately,
I don't think you feel the way I do.

The love faids down,
It's just come and gone,
We're just the same as those fools,
Who try and make up the rules,
We're born out of evil ?
The song will remain the same.
It's going to take all the world to just not change.

So take it easy,
And get your glad rags on,
Lets make like we've nothing to loose,
It will help us to choose,
Cos I love you baby,
Although it seems that lately,
I don't think you feel the way I do.
The way I do. x6



20: FREE RIDE
=============

Transcribed by Collen Chandler (hi0u70dd@liverpool.ac.uk)
Additions made by Tak (tk6315@bristol.ac.uk)


 * GUITAR TUNED DOWN 2 FRETS (DGCFAD tuning)

[Intro - piano arranged for guitar]


	C                    G                 C                  G
D|--------------1-0-|-3----------------|--------------1-0-|-3--------------|
A|-1----------------|-3--------0-3-310-|-1----------------|-3--------------|
F|------0-----0-----|-0----0-2---------|------0-----0-----|-0--------------|
C|------------------|-0----------------|------------------|-0--------------|
G|-3--------3-------|-2----------------|-3--------3-------|-2--------------|
D|--------3---------|-3----------------|--------3---------|-3--------------|




	C     Am   Em
I want a free ride  

	G           C     Am   Em
just to see what it feels like

      G           C   Am   Em      G
And even if it feels right I'm no fool

	  C            Am            Em         G
In the hospital where stretchers are arms and hands
  
   C     Am                Em    G 
I needed someone who could understand

C              Am              Em     G 
Although these things they are never planned

	  Fmaj7               C 
I want to feel, something for free


I want a clear view with nothing there that I can see through
'Cause everybody wants to understand

In the hospital where stretchers are arms and hands
I needed someone who could understand
Although these things they are never planned
I want to feel, something for free

21: IF YOU FEEL LIKE A SINNER
=============================

Chords by Karim Adab
 
 * GUITAR TUNED DOWN 2 FRETS (DGCFAD tuning) 

Bm
Somebody had better
C
Leave before I get better
G                                   C
Well enough to see you're not the one
Bm
Well enough to measure
	  C
That it couldn't last forever
G
Words I keep repeating
	      C
Are more real now they're wrong
      Am                              D
Cause I've seen hurt like this before
		     C
and I can only slow its cause
Bm
Judge me like a stone
	      C
Skim the surface of the real wrong
G
Between us couldn't be
       C
Just because you're old to me
	  Am                                     D
Cause I've seen others make much more
			      C
With limits we know nothing of
    Am  G                    C
And I, won't be keeping score
		    Am
As you wave goodbye
      Am  G                         C
Cause I, know what losing's for
		      Am
It's for when we try
    Am  G                     C                 Am
And I, know my luck is covered up in lies
	Am          C            D
And I feel like a sinner every time
	     C
I have to let you down
      D                  C                        G
And I, don't know how, I ever let you down

etc etc

 
22: PERFECT WAY
===============

 * NORMAL TUNING 
 * CAPO 7th FRET!

Am                     G
What is there left for me

Dm                    Am    G
What is there left to feel

	Am                       G
In this light you'd never get no sleep

Dm               Am
We're stuck like steel

G            Dm
Hey look you fool

	      Am
More than you gave

G               C            Am
You're with the only one who stays

G     Dm     Am

Am      G
Nowhere safe

Dm                 Am     G
Fooling around can wait

	  Am
When they find you

		       G
you'll have burned for days

Dm                 Am     G
You're gonna pay

G            Dm
Hey look you fool

	     Am
Your foolish ways

G             Dm                Am     G     Dm
Still want it all but you can't take

C
Ignore me

       Am                 G
Cos my lies won't make it right

	 C         G     C
But on a show your doing fine

	   Am              G
With every lie I steal the time

	    Dm
To find the perfect way

	  Am
To end it right

	  G
Don't you see

	    Dm
There is no perfect way

	  Am
To end it right

	  G     Dm     Am
Don't you see



23: FEELINGS I THOUGHT YOU SHARED
=================================

Transcribed by Nick (na6631@bristol.ac.uk)

 * Capo on 1st fret

Main chords are:

F C Gm C


24: DON'T TURN YOUR BACK ON LOVE
================================

Transcribed by Nick (na6631@bristol.ac.uk)

 * GUITAR TUNED DOWN 2 FRETS (DGCFAD tuning) 
 * CAPO 1st FRET

D -----------------
A -----------------
F -----------------
C ----5-------4----
G -------5p3----5--
D --3--------5-----

Play riff 4 times

G D Am D

G            D               Am               D
Don't let me turn my back on love, it's all I have

G             D              Am          D
The light you shine burns my eyes, don't turn


No don't turn around and see my morning gone, man it's a sin

[chorus]
G                    Am                  D
Please don't turn on love - before it begins

G                          D          Am                      D
There'll be time enough to change you mind when your feelings change

G                  D  Am          D
No don't turn on love - before it begins

G                          D          Am                          D
There'll be time enough to change you mind when youdon't feel the same

Solo:

D ----------------------------------------
A ----------------------------------------
F ----------------------------------------
C -5-0----5-5--2-2-----------0------------
G -----2-----0-----3-5-*-2h3---2-2-2h0----   * Screach! Any ideas?
D ------3------------------------------3--
Repeat twice

Dowloaded from We Got Guitar Tabs! at: 
http://www.geocities.com/SunsetStrip/Towers/2064/embrace


            
            
Suggest correction
Creating personal tab
Creating personal tab
You can edit any tab online and save it as your Personal.

You can edit, replace or remove any tab part or add personal notes – all changes will be seen only by you.

Personal tabs can be accessed anytime from any device, even offline.
Learn more »
Give kudos to tab author, rate the tab!
1 2 3 4 5
comments
print report bad tab
guest
Wanna post a correction for this tab? Suggest correction