Oops, an error
Loading. Please wait.

Natures Law bass

by Embrace
46 views 1 this week
1 commentread comment
1 2 3 4 5
3 more votes to show rating
add to favorites
×
Save as Personal and add changes to this tab that will be seen only by you. Learn more ›
×
You can save this tab as Personal to edit and correct it or add notes. All changes will be seen only by you. Learn more »
launch autoscroll
font size
0
reset
guitar tuner
edit
Autoscroll
slow
fast
+/-
esc
set tempo
stop
A song that shines my life
Made in China,Zhejiang Province
By Kasper Tung
If you have any questions please email me 1069040925@qq.com
At first I thought it's played on Standerd D
But later I found it is played on Drop D or C or something
I tabbed it in Drop D
It took me a year on this song


 I tried to fight the feeling
|----------------------------------------------------------------|
|----------------------------------------------------------------|
|--------------4--4-4-4--4-6--6-6-6--6---------------------------|
|--3--3-3-3--3-------------------------3--3-3-3------------------| 

 Now everything's got meaning
|---------------------------------------------------------------|
|---------------------------------------------------------------|
|--------------4--4-4-4--4-6--6-6-6--6-8--8-8-8-----------------|
|--3--3-3-3--3--------------------------------------------------| 

 Every day I fight these feelings
|---------------------------------------------------------------|
|-------4-4--------3-3------------------------------------------|
|----/4-----4---/3-----3----------------------------------------|
|--4----------3----------1-1-1-1--3-3-3-3-----------------------| 

 You can run all your life
|---------------------------------------------------------------|
|-------4-4--------3-3------------------------------------------|
|----/4-----4---/3-----3----------------------------------------|
|--4----------3----------1-1-1-1-1-1-1-1-1-1-1-1-1-1-1-1--------| 
 
 You should never fight your feelings
|---------------------------------------------------------------|
|---------------------------------------------------------------|
|--8-8--8-4-4--4-6-6--6-8-8--8----------------------------------|
|---------------------------------------------------------------|(x4)



 I'll live with never knowing
|----------------------------------------------------------------|
|----------------------------------------------------------------|
|--------------4--4-4-4--4-6--6-6-6--6---------------------------|
|--3--3-3-3--3-------------------------3--3-3-3------------------| 

 Like a broken record
|---------------------------------------------------------------|
|---------------------------------------------------------------|
|--------------4--4-4-4--4-6--6-6-6--6-8--8-8-8-----------------|
|--3--3-3-3--3--------------------------------------------------| 

 Every day I fight these feelings
|---------------------------------------------------------------|
|-------4-4--------3-3------------------------------------------|
|----/4-----4---/3-----3----------------------------------------|
|--4----------3----------1-1-1-1--3-3-3-3-----------------------| 

 You can run all your life
|---------------------------------------------------------------|
|-------4-4--------3-3------------------------------------------|
|----/4-----4---/3-----3----------------------------------------|
|--4----------3----------1-1-1-1-1-1-1-1-1-1-1-1-1-1-1-1--------| 


 You should never fight your feelings
|---------------------------------------------------------------|
|---------------------------------------------------------------|
|----------4-4-4-4-6-6-6-6-8-8-8-8------------------------------|
|--3-3-3-3------------------------------------------------------|(x4)

I wrote her letters and tried to send them
|---------------------------------------------------------------|
|---------------------------------------------------------------|
|--8-8--8-8--/11-11--11-11--------------------------------------|
|--------------------------11-11--11-11--13-13--13--13----------| 


An SOS full of good intentions
|---------------------------------------------------------------|
|---------------------------------------------------------------|
|---------------------------------------------------------------|
|--8-8--8-8--6-6--6-6--6-6--6-6--13-13--13-13-------------------| 


...Make me wait
|---------------------------------------------------------------|
|--------------------3-3---------------------1-1----------------|
|-----------------/3-----3----------------/1-----1--------------|
|--8-8--/8-8--3-3----------6-6--/6-6--1-1-----------------------| 

...My ground
|---------------------------------------------------------------|
|--------------------3-3----------------------------------------|
|-----------------/3-----3--------------------------------------|
|--8-8--/8-8--3-3----------6-6-6-6-6-6-6-6-1-1-1-1-1-1-1-1------| 


|---------------------------------------------------------------|
|---------------------------------------------------------------|
|---------------------------------------------------------------|
|--3(Let ring)--------------------------------------------------| 

 you should never fight your feelings  
 when your very bones believe them  
 if you let them show, you’ll keep them  
 i know your hurt but soon you’ll rise again, again,
 
 again…  
|-------------------------------------------------------------------|
|-------------------------------------------------------------------|
|--8-8-8-8-4-4-4-4-6-6-6-6-8-8-8-8---------4-4-4-4-6-6-6-6-8-8-8-8--|
|----------------------------------3-3-3-3--------------------------| (x2.5)


You have to follow nature's law
|---------------------------------------------------------------|
|---------------------------------------------------------------|
|---------------------------------------------------------------|
|--3(Let ring)--------------------------------------------------| 

End of song 

Hope you enjoy it

            
            
Suggest correction
Creating personal tab
Creating personal tab
You can edit any tab online and save it as your Personal.

You can edit, replace or remove any tab part or add personal notes – all changes will be seen only by you.

Personal tabs can be accessed anytime from any device, even offline.
Learn more »
Give kudos to tab author, rate the tab!
1 2 3 4 5
comments
print report bad tab
1 comment total.
0 reply
z14002390 79 Jan 27, 2016 04:57 AM

Rate 5 if you like it

guest
You may want to rate the tab now too:
select rating
Wanna post a correction for this tab? Suggest correction