Oops, an error
Loading. Please wait.

General Title tab

by Emc2
63 views 1 this week
no commentswrite comment
1 2 3 4 5
2 more votes to show rating
add to favorites
×
Save as Personal and add changes to this tab that will be seen only by you. Learn more ›
×
You can save this tab as Personal to edit and correct it or add notes. All changes will be seen only by you. Learn more »
launch autoscroll
font size
0
reset
how to read this tab
guitar tuner
edit
Autoscroll
slow
fast
+/-
esc
set tempo
stop
Author
Difficulty
Song: General Title
Artist: E=MC2
Album: What Do You Mean We Need An Album Title?
Year: 2011

Awesome song... I'm really tired...
That's all I have to say... Enjoy...




Riff (Guitar 1):

e|---------------------------------------------------------------------------|
B|---------------------------------------------------------------------------|
G|----4-4-4-4-4-4-4-4--------------------------------------------------------|
D|----4-4-4-4-4-4-4-4-4-4-4-4-4-4-4-4----------------------------------------|
A|----2-2-2-2-2-2-2-2-4-4-4-4-4-4-4-4-2-2-2-2-2-2-2-2-2-2-2-2-2-2-2-2--------|
E|--------------------2-2-2-2-2-2-2-2-0-0-0-0-0-0-0-0-0-0-0-0-0-0-0-0--------|


Riff (Guitar 2):

e|---------------------------------------------------------------------------|
B|---------------------------------------------------------------------------|
G|----4-4-4-4-4-4-4-4--------------------------------------------------------|
D|----4-4-4-4-4-4-4-4-4-4-4-4-4-4-4-4-2-2-1-1-2-2-1-1-2-2-1-1-2-2-4-4--------|
A|----2-2-2-2-2-2-2-2-4-4-4-4-4-4-4-4----------------------------------------|
E|--------------------2-2-2-2-2-2-2-2----------------------------------------|


Verse (Guitar 1):

e|---------------------------------------------------------------------------|
B|---------------------------------------------------------------------------|
G|----4-4-4-4-4-4-4-44-------------------------------------------------------|
D|----4-4-4-4-4-4-4-444-4-4-4-4-4-4---2-2-2-2-2-2-222-222-2-2-2-2-2----------|
A|----2-2-2-2-2-2-2-224-4-4-4-4-4-4---2-2-2-2-2-2-222-222-2-2-2-2-2----------|
E|--------------------2-2-2-2-2-2-2---0-0-0-0-0-0-000-000-0-0-0-0-0----------|
Mute: * * * *   * * *** * * *   *     * * * *   * *** *** * *   *    

Verse (Guitar 2):

e|---------------------------------------------------------------------------|
B|---------------------------------------------------------------------------|
G|----4-4-4-4-4-4-4-4-4-4-4-4-4-4-4-4-4-4-4-4-4-4-4-4-4-4-4-4-9-9-9----------|
D|---------------------------------------------------------------------------|
A|----2-2-2-2-2-2-2-2-2-2-2-2-2-2-2-2-2-2-2-2-2-2-2-2-2-2-2-2-7-7-7----------|
E|---------------------------------------------------------------------------|


Chorus:

e|---------------------------------------------------------------------------|
B|---------------------------------------------------------------------------|
G|----4-4-4-4-4-4-4-4--------------------------------------------------------|
D|----4-4-4-4-4-4-4-4-4-4-4-4-4-4-4-4-6-6-6-6-4-4-4-4-2-2-2-2-2-2-2-2--------|
A|----2-2-2-2-2-2-2-2-4-4-4-4-4-4-4-4-6-6-6-6-4-4-4-4-2-2-2-2-2-2-2-2--------|
E|--------------------2-2-2-2-2-2-2-2-4-4-4-4-2-2-2-2-0-0-0-0-0-0-0-0--------|


Bridge Part 1:

e|---------------------------------------------------------------------------|
B|---------------------------------------------------------------------------|
G|--------4--4h6---6-6-6---6-4------------4--4h6---6-6-6---6-4---------------|
D|------4---4---------------------------4---4--------------------------------|
A|----2----------------------------------------------------------------------|
E|------------------------------------2--------------------------------------|

e|---------------------------------------------------------------------------|
B|---------------------------------------------------------------------------|
G|--------4--4h6---6-6-6---6-4------------4--4h6---6-6-6---6-4---------------|
D|------4---4---------------------------4---4--------------------------------|
A|---------------------------------------------------------------------------|
E|----4-------------------------------0--------------------------------------|


Bridge Part 2:

e|---------------------------------------------------------------------------|
B|---------------------------------------------------------------------------|
G|----44444--4h6---6-6-6---6-4---------------4h6---6-6-6---6-4---------------|
D|----44444---------------------------44444----------------------------------|
A|----22222---------------------------44444----------------------------------|
E|------------------------------------22222----------------------------------|
Mute: ****(Hold)                      ****(Hold)

e|---------------------------------------------------------------------------|
B|---------------------------------------------------------------------------|
G|-----------4h6---6-6-6---6-4---------------4h6---6-6-6---6-4---------------|
D|----66666---------------------------22222----------------------------------|
A|----66666---------------------------22222----------------------------------|
E|----44444---------------------------00000----------------------------------|
Mute: ****(Hold)                      ****(Hold)


Held Chorus:

e|---------------------------------------------------------------------------|
B|---------------------------------------------------------------------------|
G|----4----------------------------------------------------------------------|
D|----4---------------4---------------6-------4-------2----------------------|
A|----2---------------4---------------6-------4-------2----------------------|
E|--------------------2---------------4-------2-------0----------------------|


Half-Time Chorus:

e|---------------------------------------------------------------------------|
B|---------------------------------------------------------------------------|
G|----4-------4---x-x--------------------------------------------------------|
D|----4-------4---x-x-4-------4---x-x-6---x-x-4---x-x-2-------2---x-x--------|
A|----2-------2---x-x-4-------4---x-x-6---x-x-4---x-x-2-------2---x-x--------|
E|--------------------2-------2---x-x-4---x-x-2---x-x-0-------0---x-x--------|


Song Order:
Riff (Both Guitars) x2
Verse (Guitar 1 Only) x2
Verse (Both Guitars) x2    (On the second time hold the low E5 chord)
Chorus x2
Riff (Both Guitars) x1
Verse (Guitar 1 Only) x2
Verse (Both Guitars) x2    (On the second time hold the low E5 chord)
Chorus x2
Riff (Both Guitars) x2
(Hold a B5 chord for 8 counts)
Bridge Part 1 x1
Bridge Part 2 x2
Held Chorus x2
(Pickslide low string)
Chorus x2
Half-Time Chorus x2
Riff (Both Guitars) x4



Lyrics:

Intro:
If I were a boat
I'd be a jet airplane
So that I wouldn't
Have to worry about sinking

Verse:
This is the song 
Where you sing along
And the words sound so familiar
Talking about getting drunk
And making out 
Course everybody's already been there
I'm going crazy 
And I'm outta lyrics
So I just repeat the line
Repeat the line
Repeat the line
Again and again


Chorus:
It's just a general title
That you'll learn to love
But you've already heard it before
The lyrics are dumb
And they don't make much sense
But words don't mean much anymore

Verse:
Don't make it clever
The bestest ever
Cause it'll never top the chart
Just leave it useless
And show off your coolness
You got to just play the part
Jumble your words
It's really preferred
Don't matter if you mispronounce
So mispronounce
Mispronounce
Again and again

(Chorus)


Bridge:
But what I really want
Is to write a song about you
One that simply says "I love you..."
But let's be honest
That would never sell
It wouldn't even make the charts
Cause the world don't care
About a simple guy like me
I guess that means you don't either 

(Chorus) x3

Outro:
I'll sing my heart out
Maybe get take out
 And finally tell you "I love you"
I can't take it
I know I'll make it
Cause I don't need
Auto tune
Auto tune
If I were a boat



            
            
Suggest correction
Creating personal tab
Creating personal tab
You can edit any tab online and save it as your Personal.

You can edit, replace or remove any tab part or add personal notes – all changes will be seen only by you.

Personal tabs can be accessed anytime from any device, even offline.
Learn more »
Give kudos to tab author, rate the tab!
1 2 3 4 5
comments
print report bad tab
guest
You may want to rate the tab now too:
select rating
Wanna post a correction for this tab? Suggest correction