Oops, an error
Loading. Please wait.

America tab

19 views 1 this week
no commentswrite comment
1 2 3 4 5
3 more votes to show rating
add to favorites
×
Save as Personal and add changes to this tab that will be seen only by you. Learn more ›
×
You can save this tab as Personal to edit and correct it or add notes. All changes will be seen only by you. Learn more »
launch autoscroll
font size
0
reset
how to read this tab
guitar tuner
edit
Autoscroll
slow
fast
+/-
esc
set tempo
stop
About this tab version
This is the way that Paul Bieiatowicz plays live with Carl Palmer, its derived from what Keith Emerson wrote on the keyboard. Was this info helpful? Yes No
Arranged by Paul Bielatowicz                            Leanard Bernstein/Keith Emerson

[Intro]
e|-8----10--11---|---10----8------8----6--------6------8------8----10--11-----|
B|-8-------------|---9------------8----6----8----------8------8---------------|
G|-8-------------|---10-----------8----7---------------8------8---------------|
D|-10------------|----------------10---8---------------10-----10--------------|
A|---------------|------------------------------------------------------------|
E|---------------|------------------------------------------------------------|

e|-13----15--16-|  |----11--10--8--10--|           e|-11--10-8-10--11--10-8-10--|
B|-13-----------|  |----9----------8---| Repeat    B|-9--------8---9--------8---| Repeat
G|-13-----------|  |----10---------7---|   x2      G|-10-------7---10-------7---|   x2
D|-15-----------|  |---------------9---|           D|----------9------------9---|
A|--------------|  |-------------------|           A|---------------------------|
E|--------------|  |-------------------|           E|---------------------------|

e|-----------------|---------|----------------------------------------3h4p3---3---|
B|-6----5--3----5--|---------|-5--5--6--6--5--5--3--3--4--4--3--3--4--------6---6-| Repeat
G|-5----5--5----5--|--Rest---|-5--5--5--5--5--5--4--4--3--3--3--3--3--------------|   x2
D|-5----5--5----5--|---------|-5--5--7--7--5--5--5--5--5--5--3--3--5--------------|
A|-3----3--3----3--|---------|----------------------------------------------------|
E|-----------------|---------|----------------------------------------------------|

This bit is really tricky, you'll have to listen to the song to better understand the triplets
   |----6----|  |--3--|   |----6----| |--3--|  |------6-------|  |---3---|  |---6----| |--3--|
   |         |  |     |   |         | |     |  |              |  |       |  |        | |     |
e|-------8-8-8----------|-------8-8-8-10-7---|----------11-11-11-10-------|-------------------|
B|-8-8-8-------10-------|-8-8-8------------8-|-11-11-11-------------11----|------9-9-9-8-8----| Repeat
G|----------------10----|--------------------|-------------------------10-|-8-8-8-------------|   x2
D|-------------------10-|--------------------|----------------------------|----------------10-|
D|----------------------|--------------------|----------------------------|-------------------|
E|----------------------|--------------------|----------------------------|-------------------|

The same triplet idea applies for here as well
   |-------6-------| |---3---|  |------6-------|  |---3---|  |------6-------|  |---3---|
   |               | |       |  |              |  |       |  |              |  |       |
e|----------13-13-13-10-------|----------11-11-11----------|----------------------------|-----------|
B|-10-10-10-------------11----|-13-13-13----------13-------|----------14-14-14-11-------|-----------|
G|-------------------------10-|----------------------13----|-13-13-13-------------11----|--10--12---|
D|----------------------------|-------------------------13-|-------------------------11-|--10--12---|
A|----------------------------|----------------------------|----------------------------|--8---10---|
E|----------------------------|----------------------------|----------------------------|-----------|

   |----6----|  |--3--|   |----6----| |--3--|  |------6-------|  |---3---|  |---6----| |--3--|
   |         |  |     |   |         | |     |  |              |  |       |  |        | |     |
e|-------8-8-8----------|-------8-8-8-10-7---|----------11-11-11-10-------|-------------------|
B|-8-8-8-------10-------|-8-8-8------------8-|-11-11-11-------------11----|------9-9-9-8-8----| 
G|----------------10----|--------------------|-------------------------10-|-8-8-8-------------|   
D|-------------------10-|--------------------|----------------------------|----------------10-|
D|----------------------|--------------------|----------------------------|-------------------|
E|----------------------|--------------------|----------------------------|-------------------|

   |----6----|  |--3--|   |----6----| |--3--|  |------6-------|  |---3---|  |---6----| |--3--|
   |         |  |     |   |         | |     |  |              |  |       |  |        | |     |
e|-------8-8-8----------|-------8-8-8-10-7---|----------11-11-11-10-------|-------------------|
B|-8-8-8-------10-------|-8-8-8------------8-|-11-11-11-------------11----|------9-9-9-8-8----| 
G|----------------10----|--------------------|-------------------------10-|-8-8-8----------10-|   
D|-------------------10-|--------------------|----------------------------|----------------10-|
D|----------------------|--------------------|----------------------------|----------------8--|
E|----------------------|--------------------|----------------------------|-------------------|
  
   |-------6-------|  |-------6------|                             |-------6-------|  |-------6------|
   |               |  |              |                             |               |  |              |
e|-------------------------------------|----------18-16-15-------|-------------------------13-18-13-----|
B|-13-15-16----------13-15-16----------|-13-15-16----------16-15-|----------------------15----------15--|
G|----------15-12-15----------15-12-15-|-------------------------|-15-19-17-15-19-17-15-----------------|
D|-------------------------------------|-------------------------|--------------------------------------|
A|-------------------------------------|-------------------------|--------------------------------------|
E|-------------------------------------|-------------------------|--------------------------------------|

   
e|-------------------------------------|----------18-16-15-------|
B|-13-15-16----------13-15-16----------|-13-15-16----------16-15-|
G|----------15-12-15----------15-12-15-|-------------------------|
D|-------------------------------------|-------------------------|
A|-------------------------------------|-------------------------|
E|-------------------------------------|-------------------------|

e|----------------------|------------------------------------------------------|
B|-20-21-23-21----21\20-|---20\18----18\16----16\15----15\13-------------------| Repeat
G|-------------20-------|19-------17-------15-------14-------------------------|   x2
D|----------------------|------------------------------------------------------|
A|----------------------|------------------------------------------------------|
E|----------------------|------------------------------------------------------|

e|----------------------|------------------------------------------------------|
B|-20-21-23-21----21\20-|---20\18----18\16----16\15----15\13----13\11----11/13~| 
G|-------------20-------|19-------17-------15-------14-------12-------10-------|   
D|----------------------|------------------------------------------------------|
A|----------------------|------------------------------------------------------|
E|----------------------|------------------------------------------------------|

Here Paul improvises a guitar solo when playing live w/ Carl Palmer (not written here)

e|---------------------------------------------------------------------------|
B|-3--------3----------------------------------------------------------------|
G|-0--------0----------------------------------------------------------------|
D|-0--------0----------------------------------------------------------------|
A|---------------------------------------------------------------------------|
E|-3--------3----------------------------------------------------------------|

e|---------------------------------------|-3h4p3---3---|
B|-5--5--6--6--5--5--3--3--4--4--3--3--4-|-------6---6-| Repeat
G|-5--5--5--5--5--5--4--4--3--3--3--3--3-|-------------|   x2
D|-5--5--7--7--5--5--5--5--5--5--3--3--5-|-------------|
A|---------------------------------------|-------------|
E|---------------------------------------|-------------|

   |----6----|  |--3--|   |----6----| |--3--|  |------6-------|  |---3---|  |---6----| |--3--|
   |         |  |     |   |         | |     |  |              |  |       |  |        | |     |
e|-------8-8-8----------|-------8-8-8-10-7---|----------11-11-11-10-------|-------------------|
B|-8-8-8-------10-------|-8-8-8------------8-|-11-11-11-------------11----|------9-9-9-8-8----| Repeat
G|----------------10----|--------------------|-------------------------10-|-8-8-8-------------|   x2
D|-------------------10-|--------------------|----------------------------|----------------10-|
D|-------------------10-|--------------------|----------------------------|-------------------|
E|----------------------|--------------------|----------------------------|-------------------|

  |-------6-------| |---3---|  |------6-------|  |---3---|  |------6-------|  |---3---|
   |               | |       |  |              |  |       |  |              |  |       |
e|----------13-13-13-10-------|----------11-11-11----------|----------------------------|-----------|
B|-10-10-10-------------11----|-13-13-13----------13-------|----------14-14-14-11-------|-----------|
G|-------------------------10-|----------------------13----|-13-13-13-------------11----|--10--12---|
D|----------------------------|-------------------------13-|-------------------------11-|--10--12---|
A|----------------------------|----------------------------|----------------------------|--8---10---|
E|----------------------------|----------------------------|----------------------------|-----------|

   |----6----|  |--3--|   |----6----| |--3--|  |------6-------|  |---3---|  |---6----| |--3--|
   |         |  |     |   |         | |     |  |              |  |       |  |        | |     |
e|-------8-8-8----------|-------8-8-8-10-7---|----------11-11-11-10-------|-------------------|
B|-8-8-8-------10-------|-8-8-8------------8-|-11-11-11-------------11----|------9-9-9-8-8----| 
G|----------------10----|--------------------|-------------------------10-|-8-8-8-------------|   
D|-------------------10-|--------------------|----------------------------|----------------10-|
D|----------------------|--------------------|----------------------------|-------------------|
E|----------------------|--------------------|----------------------------|-------------------|

  |----6----|  |--3--|   |----6----| |--3--|  |------6-------|  |---3---|  |---6----| |--3--|
   |         |  |     |   |         | |     |  |              |  |       |  |        | |     |
e|-------8-8-8----------|-------8-8-8-10-7---|----------11-11-11-10-------|-------------------|
B|-8-8-8-------10-------|-8-8-8------------8-|-11-11-11-------------11----|------9-9-9-8-8----| 
G|----------------10----|--------------------|-------------------------10-|-8-8-8----------10-|   
D|-------------------10-|--------------------|----------------------------|----------------10-|
D|----------------------|--------------------|----------------------------|----------------8--|
E|----------------------|--------------------|----------------------------|-------------------|

   |-------6-------|  |-------6------|                             |-------6-------|  |-------6------|
   |               |  |              |                             |               |  |              |
e|-------------------------------------|----------18-16-15-------|-------------------------13-18-13-----|
B|-13-15-16----------13-15-16----------|-13-15-16----------16-15-|----------------------15----------15--|
G|----------15-12-15----------15-12-15-|-------------------------|-15-19-17-15-19-17-15-----------------|
D|-------------------------------------|-------------------------|--------------------------------------|
A|-------------------------------------|-------------------------|--------------------------------------|
E|-------------------------------------|-------------------------|--------------------------------------|

e|-------------------------------------|----------18-16-15-------|
B|-13-15-16----------13-15-16----------|-13-15-16----------16-15-|
G|----------15-12-15----------15-12-15-|-------------------------|
D|-------------------------------------|-------------------------|
A|-------------------------------------|-------------------------|
E|-------------------------------------|-------------------------|

e|----------------------|------------------------------------------------------|
B|-20-21-23-21----21\20-|---20\18----18\16----16\15----15\13-------------------| Repeat
G|-------------20-------|19-------17-------15-------14-------------------------|   x2
D|----------------------|------------------------------------------------------|
A|----------------------|------------------------------------------------------|
E|----------------------|------------------------------------------------------|

e|----------------------|------------------------------------------------------|
B|-20-21-23-21----21\20-|---20\18----18\16----16\15----15\13----13\11----11/13~| 
G|-------------20-------|19-------17-------15-------14-------12-------10-------|   
D|----------------------|------------------------------------------------------|
A|----------------------|------------------------------------------------------|
E|----------------------|------------------------------------------------------|

e|-8----10--11---|---10----8------8----6--------6------8------8----10--11-----|
B|-8-------------|---9------------8----6----8----------8------8---------------|
G|-8-------------|---10-----------8----7---------------8------8---------------|
D|-10------------|----------------10---8---------------10-----10--------------|
A|---------------|------------------------------------------------------------|
E|---------------|------------------------------------------------------------|

e|-13----15--16-|  |----11--10--8--10--|           e|-11--10-8-10--11--10-8-10--|
B|-13-----------|  |----9----------8---| Repeat    B|-9--------8---9--------8---| Repeat
G|-13-----------|  |----10---------7---|   x2      G|-10-------7---10-------7---|   x2
D|-15-----------|  |---------------9---|           D|----------9------------9---|
A|--------------|  |-------------------|           A|---------------------------|
E|--------------|  |-------------------|           E|---------------------------|

e|--------------|------|
B|--------------|------|
G|-6----5----3--|--5---|
D|-5----5----5--|--5---|
A|-5----5----5--|--5---|
E|-3----3----3--|--3---|


************************************

| h  Hammer-on
| p  Pull-off
| \  Slide down
| /  Slide up
| ~  Vibrato

************************************
Suggest correction
Creating personal tab
Creating personal tab
You can edit any tab online and save it as your Personal.

You can edit, replace or remove any tab part or add personal notes – all changes will be seen only by you.

Personal tabs can be accessed anytime from any device, even offline.
Learn more »
Give kudos to tab author, rate the tab!
1 2 3 4 5
comments
print report bad tab
guest
You may want to rate the tab now too:
select rating
Wanna post a correction for this tab? Suggest correction