Oops, an error
Loading. Please wait.

From The Beginning tab

version 4
version 4

Whole song

23,496 views 15 this week
2 commentsread comments
1 2 3 4 5
x 10
add to favorites
×
Save as Personal and add changes to this tab that will be seen only by you. Learn more ›
×
You can save this tab as Personal to edit and correct it or add notes. All changes will be seen only by you. Learn more »
launch autoscroll
font size
0
reset
how to read this tab
guitar tuner
edit
Autoscroll
slow
fast
+/-
esc
set tempo
stop
Author
Difficulty
This tab is based off a video of the band (Scotland, 1997) that I saw.  It's a little
than most others I've seen on here, but definitely accurate.  However, please excuse my
of knowledge on what the chord names really are, I just borrowed the names from another 
or made them up as close I could.  It's an overall short song when you're going solo on
so just extend the ending however you please.

For rhythms and overall feel, listen to the song or watch the video itself on YouTube.
for tuning in!  Questions or comments welcome.

Intro:

(Freely)[Harmonics]    h  p                           h  h
 E ||----------[12]-|-10-12-10----|-----------|------------|
 B ||------[12]-----|----------12-|-10-12/----|------------|
 G ||--[12]---------|-------------|--------9--|-9-9-9-11-12|
 D ||---------------|-------------|-----------|------------|
 A ||---------------|-------------|-----------|------------|
 E ||-0-------------|-------------|-----------|------------|

 E ||-----------0--|
 B ||---------0----|
 G ||------12------|
 D ||---10---------|
 A ||-0------------|
 E ||--------------|


 E ||-------0---------0------|------0---------0------|----0-----0----|-0-|
 B ||-----10-10-----10-10----|----11-11-----11-11----|---6-6---6-6---|-6-|
 G ||---11-----11-11-----11--|--10-----10-10-----10--|--5---5-5---5--|-5-|
 D ||--0---------0---------0-|-0---------0---------0-|-0-----0-----0-|-0-|
 A ||------------------------|-----------------------|---------------|---|
 E ||------------------------|-----------------------|---------------|---|

-----------------------------------------------------------------------------

(Fill 1)
 E ||-------------|
 B ||-------------|
 G ||-------------|
 D ||----0--------|
 A ||---------0---|
 E ||-3/---3/-----|

-----------------------------------------------------
CHORDS:

Am7  Em11  C   C/B   F   G   D/F   D/Em   E7sus4
0     5    0    0    1   3    5     3       0
8     3    1    1    1   3    4     5       3
9     0    0    0    2   4    5     4       2
10    4    2    2    3   5    0     0       3
0     0    3    2    x   x    x     x       2
x     x    x    x    x   x    x     x       0

-----------------------------------------------------

(Fill 1)into  Am7  Em11 (x2)


Am7                     Em11
There might have been things I missed

(C   C/B         F    G                   D/F) - Finger Picking
But don't be unkind, it don't mean I'm blind

Fill 1
Am7                Em11
Perhaps there's a thing or two

(C           C/B      F   G                      D/F) - Finger Picking
I think of lying in bed, that I shouldn't have said

   Fill 1
But there it is...

Am7   Em11  (x2)

             D/F  D/Em
You see it's all clear

         D/F           E7sus4
You were meant to be here

Trill on D string, 2nd to 3rd fret (Freely)

(Fill 1)
Am7             Em11
From the beginning

Am7  Em11

Am7             Em11
Well maybe I might have changed

C   C/B           F    G               D/F
And not been so cruel, not been such a fool

Fill 1
Am7          Em11
Whatever is done is done

C  C/B         F     G                    D/F
I just can't recall, it doesn't matter at all

Fill 1,   Am7 Em11 (x2)

            D/F    D/Em
You see it's all clear
         D/F           E7sus4
You were meant to be here

Fill 1
Am7        Em11
From the beginning

Am7  Em11 out...

            
            
Suggest correction
Creating personal tab
Creating personal tab
You can edit any tab online and save it as your Personal.

You can edit, replace or remove any tab part or add personal notes – all changes will be seen only by you.

Personal tabs can be accessed anytime from any device, even offline.
Learn more »
comments
print report bad tab
2 comments total.
0 reply
Oldschoolguy 10 Apr 28, 2011 08:12 AM

Instead of an F

Its actually this Fadd9

0 reply
Shwax 256 Jan 19, 2016 05:08 PM

The intro sounds off, especially compared to the previous two submitted tabs. Same goes for the fingerings for the chords in the chorus. It just doesn't sound 100% right. Good effort, but the other tabs look more accurate.

guest
You may want to rate the tab now too:
select rating
Wanna post a correction for this tab? Suggest correction