Oops, an error
Loading. Please wait.

Karn Evil 9 bass

version 2
version 2

Whole song

2,533 views 6 this week
1 commentread comment
1 2 3 4 5
1 last vote to show rating
add to favorites
×
Save as Personal and add changes to this tab that will be seen only by you. Learn more ›
×
You can save this tab as Personal to edit and correct it or add notes. All changes will be seen only by you. Learn more »
launch autoscroll
font size
0
reset
guitar tuner
edit
Autoscroll
slow
fast
+/-
esc
set tempo
stop
Author
youtube: xzen2
my band: http://www.youtube.com/user/ZzyzxBand


(/) Slide  (h) Hammer On  (p) Pull Off  (b) Bend (r) Release (v) Vibrato


Keyboard Intro(00:00)


G|--------------------------------------------------|
D|-6--6-7-6-4----------4----------------------------|
A|------------6-4-4-5-6---6-5-4-2---4---2-----------|
E|--------------------------------4---4---4---------|




G|---6---4------------------------------------------|
D|-6---6---6---8---6-----8-6---6-4---------6-8-9----|
A|-----------6---6---6-------6-----4-6-7-9----------|
E|--------------------------------------------------|




G|-9-8----------13-------13----------13-------------|
D|-----9--11-11----11-11----11-11-11----------------|
A|--------------------------------------------------|
E|--------------------------------------------------|




G|-13-11----------------6---8---9---10--------------|
D|-------13-14-11---------4---6---7----9------------|
A|----------------14-14-----------------------------|
E|--------------------------------------------------|




G|-11-9---------------9-----------------------------|
D|------11-9-7-7-9/11---11-9-7----------------------|
A|-----------------------------9-7-7-9--------------|
E|-------------------------------------7------------|


________________________________________________________________



G|---6---4-----4-3------------6---4-----4-3---------|
D|-6---6---5-6-------5-5-6--6---6---5-6-------5-5-6-|
A|-----------------6------------------------6-------|
E|--------------------------------------------------|


or the bass part

G|--------------------------------------------------|
D|--------6--------------6----------6-------------6-|
A|-------------------6-6----------------------6-6---|
E|----4-------6-----------------4-------6-----------|


________________________________________________________________
________________________________________________________________


(00:26)


G|--------------------------------------------------|
D|---6-6-----5-5-----4-4-----3-----2-----1----------|
A|-6-----6-5-----5-4-----4-3---3-2---2-1---1--------|
E|--------------------------------------------------|

                                                            4x

G|---6---4-----4-3----------------------------------|
D|-6---6---5-6-------5-5-6--------------------------|
A|-----------------6--------------------------------|
E|--------------------------------------------------|


________________________________________________________________



G|--------------------------------------------------|
D|-6-4-3---3-1-0----------------------------6/18----|
A|--------------------------------------------------|
E|-----------------7-4-7--6-4-6--4-5-5-5-5----------|




G|--------------------------------------------------|
D|----------6-5-------------------------------------|
A|--------------6-4---5-5---6-6-6-6-----------------|
E|-4------4---------7------------------4-4----------|



G|---------3-4---------7-8-9-------------8----------|
D|-----6-7-------------------6---------8------------|
A|-------------5---7-------------7---6-----4--2--6--|
E|--4----------------7------------------------------|



G|--------------------------------------------------|
D|-4-6----------------------------------------------|
A|-------4------4-----------------------------------|
E|-----7---7------7---------------------------------|




G|-11-9---------------9-----------------------------|
D|------11-9-7-7-9/11---11-9-7----------------------|
A|-----------------------------9-7-7-9--------------|
E|-------------------------------------7------------|



G|---6---4-----4-3----------------------------------|
D|-6---6---5-6-------5-5-6--------------------------|
A|-----------------6--------------------------------|
E|--------------------------------------------------|


________________________________________________________________


"Suffering in silence..." (01:37)


G|--------------------------------------------------|
D|---6-6-----4-4-----2-2------1-1-------------------|
A|--------------------------------------------------|
E|-4-----4/2-----2/0--------------------------------|

                                                            4x

G|---6---4-----4-3----------------------------------|
D|-6---6---5-6-------5-5-6--------------------------|
A|-----------------6--------------------------------|
E|--------------------------------------------------|


_______________________________________________________________



G|--------------------------------------------------|
D|-6-4-3---3-1-0------------------------------------|
A|--------------------------------------------------|
E|-----------------7-4-7--6-4-6--4-5-5-5-5----------|




G|------------------8-------------------------------|
D|-----------8-9-11---------------------------------|
A|-8-9-10-11------------7-7---4-4-4-4---------------|
E|--------------------------------------------------|



(02:18)



G|--------------------------------------------------|
D|-9---9---9---9----6---6---6-----------------------|
A|--------------------------------------------------|
E|---7---7---7---7----4---4-------------------------|




G|--------------------------------------------------|
D|-4---4---4---4---4---4---4---4---4---4---4---4----|
A|--------------------------------------------------|
E|---2---2---2---2---2---2---2---2---2---2---2---2--|




G|-8---8---8---8---8---8---8---8---8---8---8---8----|
D|--------------------------------------------------|
A|---6---6---6---6---6---6---6---6---6---6---6---6--|
E|--------------------------------------------------|




G|-8---8--------------------------------------------|
D|----------9---9---8---8---8---8-------------------|
A|---6---6------------------------------------------|
E|------------7---7---6---6---6---6-----------------|




G|----------------------13-11-----------------------|
D|---6-8--9---------14--------14--------------------|
A|-9-----------4-6----------------9-11--------------|
E|-----------7--------------------------------------|



___________________________________________________________________


(02:44)


G|-11-9-------------9-------------------------------|
D|------11-9/7-9/11----11-9/7-----------------------|
A|----------------------------9-7/5---5-------------|
E|----------------------------------7---------------|

                                                         2x

G|---6---4-----4-3----------------------------------|
D|-6---6---5-6-------5-5-6--------------------------|
A|-----------------6--------------------------------|
E|--------------------------------------------------|


__________________________________________________________________


(02:56)


(4x)
G|--------------------------------------------------|
D|-6------------------------------------------------|
A|---6-7--------9-----------------------------------|
E|-------7--9-9-------------------------------------|



(2x)
G|-6------------------------------------------------|
D|---6-7-------9------------------------------------|
A|-------7-9-9--------------------------------------|
E|--------------------------------------------------|



(2x)
G|-----------------|--------------------------------|
D|-6---------------|--------------------------------|
A|---6-7--------9--|-11-9-8----8-6-5----5-4-2-------|
E|-------7--9-9----|--------------------------------|



G|--------------------------------------------------|
D|---------------------------6---6---6---7---7------|
A|--------------------------------------------------|
E|-7-4-7--6-4-6--4-5-5-5-5-4---4---4---5---5--------|


________________________________________________________________

(2x)

(03:41)

(4x)
G|--------------------------------------------------|
D|-6-6-6--------------------------------------------|
A|-------6-6-7---4----------------------------------|
E|-------------7---4--------------------------------|



(2x)
G|-6-6-6--------------------------------------------|
D|-------6-6-7--------------------------------------|
A|-------------7-9----------------------------------|
E|-----------------7--------------------------------|


(2x)
G|--------------------------------------------------|
D|-6-6-6--------------------------------------------|
A|-------6-6-7---4----------------------------------|
E|-------------7---4--------------------------------|



G|--------------------------------------------------|
D|--------------------------------------------------|
A|--------------------------------------------------|
E|-5-5---5-5---5-5---5-5---5-5-5--------------------|



(2x)
G|--------------------------------------------------|
D|-6-6-6-------------6------------------------------|
A|-------6-6-7---4----------------------------------|
E|-------------7---4--------------------------------|



_______________________________________________________________

(04:17)

G|-----------------------18-------------------------|
D|---9---9---------16-18----19-----9---9------------|
A|-7---7--------16---------------7---7--------------|
E|-----------16-------------------------------------|



(2x)
G|--------------------------------------------------|
D|-5-5-55-------------------------------------------|
A|--------5-5---------------------------------------|
E|------------2-2-5-2-2-5---------------------------|



(2x)
G|-8-6-5---8-----6----------------------------------|
D|-------8----6----6-4--6-4---66-4------------------|
A|--------------------------------------------------|
E|--------------------------------------------------|




G|--------------------------------------------------|
D|-------6------------------------------------------|
A|-4-3---------7--99--------------------------------|
E|-----6---4-7-------9------------------------------|




G|--------------------------------------------------|
D|---7---7--7---7---7--7--4-5-6---------------------|
A|-7---7---7--7---7---7-----------------------------|
E|------------------------------4-4-4-4-4-4-4-4-4-4-|




G|--------------------------------------------------|
D|-------------------------------------------4-5-6--|
A|--------------------------------------------------|
E|-4-4-4-4-4-4-4-4-4-4-4-4-4-4-4-4-4-4-4-4-4--------|




G|------------------------13-12-11------------------|
D|--------------------------------13-12-11----------|
A|----------------------------------------13-12-11--|
E|-4-4-4-4-4-4-4-4-4-4-4----------------------------|


________________________________________________________________

(05:22)

(3x)
G|-------------6-6-8-|-----------8-8-6--------------|
D|---6-----6---------|---6-9-9-6--------------------|
A|-------------------|------------------------------|
E|-4---4-4---4-------|-4----------------------------|




G|-------------6-6-8-|-------------6-6-8------------|
D|---6---------------|---6-----6--------------------|
A|-------------------|------------------------------|
E|-4---4-------------|-4---4-4---4------------------|

           ^-----Pause(5:31)


G|-------------6-6-8-|------------------------------|
D|---6-----6---------|---6-9-9-6--------------------|
A|-------------------|------------------------------|
E|-4---4-4---4-------|-4----------------------------|


(05:37)

G|--------------------------------------------------|
D|----13---11------13-14----------------------------|
A|-11----9----11-12-------2------3-----4--5--6--7---|
E|--------------------------------------------------|

________________________________________________________________

"Roll Up!"

G|-----10-10p8-8h10-8h10-10-8-----------------------|
D|----------------------------10-9-8----------------|
A|-8-8-------------------------------11-------------|
E|--------------------------------------------------|


"Roll Up!"

G|-------13-13p11-11h13-11h13-13-11-----------------|
D|----------------------------------13-12-11--------|
A|-11-11-------------------------------------14-----|
E|--------------------------------------------------|


"Roll Up!"

G|-------15-15p13-13h15-13h15-15-13-----------------|
D|----------------------------------15-14-13--------|
A|-13-13-------------------------------------16-----|
E|--------------------------------------------------|


(05:47)
"See the Show!"

G|--------------------------------------------------|
D|-------------4-----------------2----------6-------|
A|-6------4----------4------2----------4------------|
E|--------------------------------------------------|

________________________________________________________________






________________________________________________________________

(05:55)

(3x)
G|-------------6-6-8-|-----------8-8-6--------------|
D|---6-----6---------|---6-9-9-6--------------------|
A|-------------------|------------------------------|
E|-4---4-4---4-------|-4----------------------------|


(3x)
G|-------------6-6-8-|------------------------------|
D|---6-----6---------|---6-9-9-6--------------------|
A|-------------------|------------------------------|
E|-4---4-4---4-------|-4----------------------------|



(06:10)

G|--------------------------------------------------|
D|----13---11------13-14----------------------------|
A|-11----9----11-12-------2------3-----4--5--6--7---|
E|--------------------------------------------------|

________________________________________________________________

"Roll Up!"

G|-----10-10p8-8h10-8h10-10-8-----------------------|
D|----------------------------10-9-8----------------|
A|-8-8-------------------------------11-------------|
E|--------------------------------------------------|


"Roll Up!"

G|-------13-13p11-11h13-11h13-13-11-----------------|
D|----------------------------------13-12-11--------|
A|-11-11-------------------------------------14-----|
E|--------------------------------------------------|


"Roll Up!"

G|-------15-15p13-13h15-13h15-15-13-----------------|
D|----------------------------------15-14-13--------|
A|-13-13-------------------------------------16-----|
E|--------------------------------------------------|


(06:20)
"See the Show!"

G|--------------------------------------------------|
D|-------------4-----------------2----------6-------|
A|-6------4----------4------2----------4------------|
E|--------------------------------------------------|

________________________________________________________________




________________________________________________________________

(06:28)

(3x)
G|-------------6-6-8-|-----------8-8-6--------------|
D|---6-----6---------|---6-9-9-6--------------------|
A|-------------------|------------------------------|
E|-4---4-4---4-------|-4----------------------------|


(3x)
G|-------------6-6-8-|------------------------------|
D|---6-----6---------|---6-9-9-6--------------------|
A|-------------------|------------------------------|
E|-4---4-4---4-------|-4----------------------------|



(06:43)

G|--------------------------------------------------|
D|----13---11------13-14----------------------------|
A|-11----9----11-12-------2------3-----4--5--6--7---|
E|--------------------------------------------------|

________________________________________________________________

"Roll Up!"

G|-----10-10p8-8h10-8h10-10-8-----------------------|
D|----------------------------10-9-8----------------|
A|-8-8-------------------------------11-------------|
E|--------------------------------------------------|


"Roll Up!"

G|-------13-13p11-11h13-11h13-13-11-----------------|
D|----------------------------------13-12-11--------|
A|-11-11-------------------------------------14-----|
E|--------------------------------------------------|


"Roll Up!"

G|-------15-15p13-13h15-13h15-15-13-----------------|
D|----------------------------------15-14-13--------|
A|-13-13-------------------------------------16-----|
E|--------------------------------------------------|


(06:52)
"See the Show!"

G|--------------------------------------------------|
D|-------------4-----------------2----------6-------|
A|-6------4----------4------2----------4------------|
E|--------------------------------------------------|

________________________________________________________________

Guitar Solo

(8x)
G|--------------------------------------------------|
D|-----4-----6-----4--------------------------------|
A|-4-6---4-6---4-6----------------------------------|
E|--------------------------------------------------|



(8x)
G|--------------------------------------------------|
D|-----6-----8-----6--------------------------------|
A|-6-8---6-8---6-8----------------------------------|
E|--------------------------------------------------|


(07:31)

(2x)
G|---6-7-8---11-------------------------------------|
D|---------9----9-----------------------------------|
A|-6------------------------------------------------|
E|--------------------------------------------------|




G|--------------------------------------------------|
D|-----------6---6----------------------------------|
A|-----------------0-2-4-6---------0---2---4---6----|
E|-5-5-5-5-4---4-----------4-4-4-4------------------|




G|--------------------------------------------------|
D|---------------------------------------1----------|
A|-7---9---11---11-9-7---6---4---2---1--------------|
E|--------------------------------------------------|




G|--------------------------------------------------|
D|-6-4----------------------------------------------|
A|-----7----4-6-8----5-6-8--------------------------|
E|--------------------------------------------------|


(08:00)

G|--------------------------------------------------|
D|--------------------------------------------------|
A|-7----------------------4-------------------------|
E|--------------------------------------------------|


(08:07)

G|--------------------------------------------------|
D|--------------------------------------------------|
A|--------------------------------------------------|
E|-5----------------------2-------------------------|




G|--------------------------------------------------|
D|-3-2-1-0------------------------------------------|
A|---------------4-------2-------1-------0----------|
E|--------------------------------------------------|




G|--------------------------------------------------|
D|-6---4---3---2------------------------------------|
A|-----------------6---4---3---2---1---1---1---1----|
E|--------------------------------------------------|



G|--------------------------------------------------|
D|--------------------------------------------------|
A|--------------------------------------------------|
E|-4------------------------------------------------|

            
            
Suggest correction
Creating personal tab
Creating personal tab
You can edit any tab online and save it as your Personal.

You can edit, replace or remove any tab part or add personal notes – all changes will be seen only by you.

Personal tabs can be accessed anytime from any device, even offline.
Learn more »
Give kudos to tab author, rate the tab!
1 2 3 4 5
comments
print report bad tab
1 comment total.
0 reply
mastermilon 10 Dec 18, 2014 06:00 PM

Lack of accuracy. Clearly wrong. This guy is listening to a different song. I can't find a single correct passage. Best buy a book and transcribe that.

guest
You may want to rate the tab now too:
select rating
Wanna post a correction for this tab? Suggest correction