Oops, an error
Loading. Please wait.

As Your Voice Fades Tab

version 1
version 1

Whole song

6,066 views 6 this week
1 commentread comment
1 2 3 4 5
please rate
add to favorites
launch autoscroll
font size
0
reset
how to read this tab
guitar tuner
Autoscroll
slow
fast
+/-
esc
set tempo
stop
Help us to improve Ultimate-Guitar.com Take our survey!
×
Author
Difficulty
Tuning
intermediate
D A D G B E
Hey i made this tab with the 2 guitars but im too lazy so for now im just giving you the 
1 parts dont rate this tab until you see the guitar 2 tab so then you can think if its 
or bad.
Ya saque esta rola con las 2 liras pero como soy bien webon ahorita pongo las partes de 
guitarra 1 y despùes las de la 2 mientras no califiquen este tab que me pidio mi amigo 
de "algun dia".

Tabbed by: Mario Oscar Negrete Marrujo
Email: x17_89@hotmail.com

Tuning:Drop Db

 Intro deja sonar cada acorde(let ring each chord):
eb|-0--0--------0--0-----0-----0-------------------------|
Bb|-0--0--0-----0--0--0--0--0--0-------------------------|
Gb|-9--5--0--0--9--5--0--5--0--5-------------------------|
Db|-9--5--2--2--9--5--5--5--7--5-------------------------|
Ab|-7--3--2--2--7--3--5--3--7--3-------------------------|
Db|-------2-----------5-----7----------------------------|

 Somebody else:
eb|------------------------|
Bb|------0-8---------------|
Gb|-----0------------------|
Db|------------------------|
Ab|---7--------------------|
Db|-7----------------------|

  Pre-gritos(pre-screams):
eb|-2/333333/2-2/333333/2-2/333333/2-2/333333/2-----|
Bb|-3-333333-3-3-333333-3-3-333333-3-3-333333-3-----|
Gb|-0-000000-0-2-222222-2-0-000000-0-0-000000-0-----|
Db|-2-222222-2-0-000000-0-x-xxxxxx-x-x-xxxxxx-x-----|
Ab|-----------------------3-333333-3-3-333333-3-----|
Db|-------------------------------------------------|

   Why did you died?(x3)
eb|-----------------------------------------------|
Bb|-----------------------------------------------|
Gb|-9-----7-----555-444-5-7-555-444-5-7-----------|
Db|-9(x10)7(x10)555-444-5-7-555-444-5-7-----------|
Ab|-7-----5-----333-222-3-5-333-222-3-5-----------|
Db|-----------------------------------------------|

Despues(then):
eb|-----------------------------------------------|
Bb|-----------------------------------------------|
Gb|-5-----7-----9-----5---------------------------|
Db|-5(x12)7(x12)9(x12)5(x12)----------------------|
Ab|-3-----5-----7-----3---------------------------|
Db|-----------------------------------------------|

  1:27 no distorcion:
eb|-----------------------------------------------|
Bb|-----------------------------------------------|
Gb|--7--7--7--7--7--7--7--7-----------------------|
Db|---5--5--5--5--5--5--5--5----------------------|
Ab|-7--7--7--7--5--5--5--5------------------------|
Db|-----------------------------------------------|

The brightness...lo puse en acordes(i got the chords):

eb|-0--0--------0--0---------|
Bb|-1--1--0--0--1--1---------|
Gb|-0--0--0--0--0--0---------|
Db|-2--2--7--5--2--2---------|
Ab|-3--2--7--5--3--2---------|
Db|-------7--5---------------|

  Until my end...
eb|-0--3--0--3---------------|
Bb|-1--2--1--2---------------|
Gb|-0--3--0--3---------------|
Db|-2--0--2--0---------------|
Ab|-3-----3------------------|
Db|--------------------------|

  Bajeo para lira(bass for guitar):
eb|------------------------------------------|
Bb|------------------------------------------|
Gb|------------------------------------------|
Db|------5-------4-------2-------------------|
Ab|-7-77--7-7555-55-3-33-33-3-2-0------------|
Db|--------------------------------55--------|

Mientras esta el bajeo una lira toka los pre-gritos pero con otro ritmo
(while the bass solo a guitar plays the pre-screams part but with other rythm)

 2:25 :
eb|-3-2--2---5-2-3-2-------------------------------------|
Bb|----3---3-----------------------------5--5--7--7------|
Gb|-------------------------2/4-5-4p2--7--7-----7--7-----|
Db|-----------------4-5-4-0----------45----4--9--9-------|
Ab|------------------------------------------------------|
Db|------------------------------------------------------|

Your words(your life):
eb|------------------------------------|
Bb|------------------------------------|
Gb|-99-77-55-55-99-77-5--5-------------|
Db|-99-77-55-55-99-77-5--5-------------|
Ab|-77-55-33-33-77-55-3--3-------------|
Db|------------------------------------|

Forgotten!
eb|------------------------------------------------------------|
Bb|------------------------------------------------------------|
Gb|------------555555555-77777777------------------------------|
Db|-2222222222-555555555-77777777-121212111111141414111111-----|
Ab|-2222222222-333333333-55555555-101010-9-9-9121212-9-9-9-----|
Db|-2222222222-------------------------------------------------|
    .......... ......... ........  . . . . . . . . . . . .

  The chains!
eb|----------------------------------------------------------|
Bb|----------------------------------------------------------|
Gb|-12-----14-----11-----121212111111-141414111111-----------|
Db|--x(x12)-x(x12)-x(x12)-x-x-x-x-x-x--x-x-x-x-x-x-----------|
Ab|-10-----12------9-----101010-9-9-9-121212-9-9-9-----------|
Db|----------------------------------------------------------|

eb|---------------------------------------------------|
Bb|---------------------------------------------------|
Gb|-12-----14-----1717171717-16161616-14141414--------|
Db|--x(x12)-x(x12)-x-x-x-x-x--x-x-x-x--x-x-x-x--------|
Ab|-10-----12-----1515151515-14141414-12121212--------|
Db|---------------------------------------------------|

  Fin:
eb|--------------------------------------------|
Bb|--------------------------------------------|
Gb|-12-11-14-11--------------------------------|
Db|--x--x--x--x--------------------------------|
Ab|-10--9-12--9--------------------------------|
Db|--------------------------------------------|

Luego hecho la continuacion cuerdas banda!
I´ll put the continuation soon bye
Suggest correction
Give kudos to tab author, rate the tab!
1 2 3 4 5
comments
print report bad tab
1 comment total.
0 reply
omertoscar 549 wrote on January 28 2007, 10:04 pm

hey i tried to put the second guitar for the song but the page didnt let me :(

hey kise poner la parte 2 de la rola pero la pagina no kiso a la verde!!!

guest
You may want to rate the tab now too:
select rating
Please do not post tabs as comments. Select "correction" instead!