Oops, an error
Loading. Please wait.

As Your Voice Fades Bass Tab

version 2
version 2

Whole song

304 views 1 this week
no commentswrite comment
1 2 3 4 5
2 more votes to show rating
add to favorites
launch autoscroll
font size
0
reset
guitar tuner
Autoscroll
slow
fast
+/-
esc
set tempo
stop
Help us to improve Ultimate-Guitar.com Take our survey!
×
DADG tune D to Db

why did you die?

G--------------------------|
D--------------------------|
A------------3233-4-3233-4-|
D-22222-00000--------------|

...with me
                ist ending 2nd 
G--------------|----------|--|
D----2------4--|----------|--|
A-333-3--555-5-|-7-77-777-|--|
D--------------|----------|--|

the brightness

G-----------------------------------------|
D--------------4h5p4h5p4h5p4--------------|
A-3-(19)-2-(19)--------------0-(19)-------|
D----------------------------------5-(19)-|

dont tell me

G--------------------------------------------------|
D-------------------2--------2--------4-0------4-0-|
A-3-(19)-------333-1-3--333-1-3--555-3----555-3----|
D-------2-(19)-------------------------------------|

ok heres the bass solo this is how i play it cuz i dont have five string

G----------------------11-----------9-----|
D-141414-17-1414-121212--1212-101010-1010-|
A-----------------------------------------|
D-----------------------------------------|

G---------------------------------------------|
D-10-9-7-5----------------4------2------------|
A---------9--777-10-77-555-55-333-33-3-2-0----|
D-----------------------------------------5-4-|

while words

G-----------------------------|
D-----------------------------|
A---------3-3--3-3-------3--3-|
D-2-2-0-0---------2-2-0-0-----|

G-----------------------------------|
D----------------------------444----|
A-------3-(13)-5-(13)-777-555---555-|
D-2-(13)----------------------------|

the chains

G----------------------------|
D-----------------------44---|
A------3-(9)-5-(9)-77-55--55-|
D-2-(9)----------------------|

G-------|
D----4--|   hold last note till end
A-7-5-5-|
E-------|

well thats it some of that stuff repeats the () tells you how many times to play
it                      emery rocks!

till next time 
Suggest correction
Give kudos to tab author, rate the tab!
1 2 3 4 5
comments
print report bad tab
guest
You may want to rate the tab now too:
select rating
Wanna post a correction for this tab? Suggest correction