Oops, an error
Loading. Please wait.

Bloodless Tab

version 1
version 1

Whole song

Interactive

2,240 views 1 this week
1 commentread comment
1 2 3 4 5
accurate
x 10
add to favorites
launch autoscroll
font size
0
reset
how to read this tab
guitar tuner
Tab Pro tools
  • play this tab
  • loop segment
  • change instrument
  • show fretboard
  • metronome
×
Best way to learn
"Bloodless"
Autoscroll
slow
fast
+/-
esc
set tempo
stop
Artist: Emery
Title: Bloodless
Official Site: www.emerymusic.com
Tuning: half step down drop D

Guitar 1

Intro

|--------------------------------------------------------------------------------------------------
|--------------------------------------------------------------------------------------------------
|------------------------------------------------------------------------/16-16-16-16-16---16-16-17
|-10-10-10-10-10---10-10-10-10-10---10-10-10-7-7-xxx-7~-10-10-10-10-10-----------------------------
|-10-10-10-10-10---10-10-10-10-10---10-10-10-7-7-xxx-7~-10-10-10-10-10---/14-14-14-14-14---14-14-15
|-10-10-10-10-10---10-10-10-10-10---10-10-10-7-7-xxx-7~-10-10-10-10-10-----------------------------

|-----------
|-----------
|-----------
|-7-7-xxx-7~
|-7-7-xxx-7~
|-7-7-xxx-7~

Verse

|-----------------------------------------------------------------------
|-----------------------------------------------------------------------
|-----------------------------------------------------------------------
|-10-10-10-10-10---10-10-10-10-10---10-10---7-7-7-7-7---7-7-7-7-7---7-7-
|-10-10-10-10-10---10-10-10-10-10---10-10---7-7-7-7-7---7-7-7-7-7---7-7-
|-10-10-10-10-10---10-10-10-10-10---10-10---7-7-7-7-7---7-7-7-7-7---7-7-

End of Verse

|----------------------------------------------
|----------------------------------------------
|------12------------12---------16----------16-
|-7-7--------7-7-7---------7-7-------7-7-7-----
|-7-7--10----7-7-7---10----7-7--14---7-7-7--14-
|-7-7--------7-7-7---------7-7-------7-7-7-----

Pre chorus

|---------------------------------------------------------------------
|---------------------------------------------------------------------
|-7-7-7-7-7-7-7-7--------------------5-5-5-5-5-5-5-5------------------
|-7-7-7-7-7-7-7-7---2-2-2-2-2-2-2-2--5-5-5-5-5-5-5-5--7-7-7-7-7-7-7-7-
|-5-5-5-5-5-5-5-5---2-2-2-2-2-2-2-2--3-3-3-3-3-3-3-3--7-7-7-7-7-7-7-7-
|-------------------2-2-2-2-2-2-2-2-------------------7-7-7-7-7-7-7-7-

Chorus

|-------------------------------------------------------------------------------
|-8-8-7-7-------8-8-7-7------8-8-7-7------10-10--------10-10--------10------8-7-
|---------7-7-----------7-7-----------7-7---------7-7-----------7-7------7------
|-------------------------------------------------------------------------------
|-------------------------------------------------------------------------------
|-------------------------------------------------------------------------------

Fill

|--------------------
|-5~---3~-----3/5-5--
|--------------------
|--------------------
|--------------------
|--------------------

Post Chorus part 1

|------0---0-7-3-2h3-------0----0--5-3-2h3-------0----0--7-3-2h3--------0------0-------0---------
|-3/5----5------------3/5----5--------------3/5----5--------------3/5-----3/5----3/5-----3h5p3p0-
|------------------------------------------------------------------------------------------------
|------------------------------------------------------------------------------------------------
|------------------------------------------------------------------------------------------------
|------------------------------------------------------------------------------------------------

Post Chorus part 2

|-----------------------------------------------------------------------------------
|-----------------------------------------------------------------------------------
|-5-5---------------------------------------------------5-5-------------11~-7~------
|-5-5---0-0--------4----4----5\---------4----4------4---5-5---0-0-xxxx--------------
|-3-3---0-0---------------------------------------------3-3---0-0-xxxx---9~--5~-----
|-------0-0---2-2----2-----2------2-2------2------2-----------0-0-xxxx----------5~\-

Heavy bit

|---------------------------------------------
|---------------------------------------------
|------------------------5-5-5----5-5-5---5-5-
|-2-2-2----2-2-2---2-2---5-5-5----5-5-5---5-5-
|-2-2-2----2-2-2---2-2---3-3-3----3-3-3---3-3-
|-2-2-2----2-2-2---2-2------------------------

Bridge

|--------------------------------------------------------------------------------------------------
|--------------------------------------------------------------------------------------------------
|--------------------------------------------------------------------------------------------------
|----------------------------------7-7-7-7-7-7-7-7-7-7-7-7-7-7-7-7-5-5-4-4-7-7-4-4-5-5-4-4-7-7-4-4-
|-5-5-5-5-5-5-5-5-5-5-5-5-5-5-5-5------------------------------------------------------------------
|--------------------------------------------------------------------------------------------------
PM.............................................................................................

|--------------------------------------
|--8-8-7-7-10-10-7-7-8-8-7-7-10-10-7-7-
|--------------------------------------
|--------------------------------------
|--------------------------------------
|--------------------------------------


|---------------------------------------------------------------------------------------------------------
|---------------------------------------------------------------------------------------------------------
|-4-4-4-2-2-2---------------------------------------------------------------4-4-4-5-5-5-7-7-7-7-7-7-7-7-7-
|---------------5-5-5-5-5-5-5-5-5-5-4-4-4-4-4-4-4-4-4-4-5-5-5-5-5-5-5-5-5-5-------------------------------
|---------------------------------------------------------------------------------------------------------
|---------------------------------------------------------------------------------------------------------

|--------------------7-7-7-8-8-8-10-10-10-10-10-10-10-10-10-10-7-7-7-8-8-8-10-10--
|---------------------------------------------------------------------------------
|-4-4-4-5-5-5-7-7-----------------------------------------------------------------
|---------------------------------------------------------------------------------
|---------------------------------------------------------------------------------
|---------------------------------------------------------------------------------

Play chorus again

Play Fill

Play Post chorus 1

Then play post chorus part two but with muting in between.

Linking section

|-------------
|-------------
|-11~--7~--4~-
|-------------
|-9~---5~--2~-
|-------------

Ending

|-------------------------------------------------------------------------------------------------------------
|-------------------------------------------------------------------------------------------------------------
|-----------16-----------16-----------------------------------------------------------------------------------
|-2-2-2-2-------2-2-2-2--------------5-5-5-5-5------------4-4-4-4-4------------5-5-5-5-5-5-----------4-4-4-4-4
|-2-2-2-2---14--2-2-2-2--14--3-3-3-3------------3-3-3-3-------------------------------------------------------
|-2-2-2-2-------2-2-2-2----------------------------------------------2-2-2-2----------------2-2-2-2-----------

Play last part of that twice

Then play below twice
|------------------------------------------------------------------
|------------------------------------------------------------------
|-5-5-5-5-5-5-5-5-5-5-5-5-5-5-5-5----------------------------------
|-5-5-5-5-5-5-5-5-5-5-5-5-5-5-5-5--2-2-2-2-2-2-2-2-2-2-2-2-2-2-2-2-
|-3-3-3-3-3-3-3-3-3-3-3-3-3-3-3-3--2-2-2-2-2-2-2-2-2-2-2-2-2-2-2-2-
|----------------------------------2-2-2-2-2-2-2-2-2-2-2-2-2-2-2-2-

Linking bit

|--------------------------------------------------------------------
|--------------------------------------------------------------------
|-----------4-4-5-5-4-4-------4-4-5-5-7-7-5-5-4-4--------------------
|------5-5---------------5-5-----------------------5-5-5-5-5-5-5-5-5-
|-3-3----------------------------------------------------------------
|--------------------------------------------------------------------

End!! Play this a few times

|-----------------------------------------------
|-------------------------------------------3^5-
|-----------------------------------------------
|-2-2---2-2---2-2---2-2---2-2---2-2---2-2-------
|-2-2---2-2---2-2---2-2---2-2---2-2---2-2-------
|-2-2---2-2---2-2---2-2---2-2---2-2---2-2-------



Guitar 2

Intro

|----------------------------------------------------------
|----------------------------------------------------------
|----12~------------12 -11~------------12~----------12-11~-
|-9-------------9------------------9------------9----------
|----------------------------------------------------------
|----------------------------------------------------------

Verse

Same as guitar 1

End of verse

|----------
|----------
|------12--
|-7-7------        x4
|-7-7--10--
|-7-7------


Pre chorus

Same as guitar 1

Chorus

|-----------------------------
|-----------------------------
|-----------------------------
|-0-0---0-5-5---5-7-7---7-7-7-
|-0-0---0-5-5---5-7-7---7-7-7-
|-0-0---0-5-5---5-7-7---7-7-7-


Fill

|-------------------------------------------------------------------------
|---------0---------0---------0--------------------0--------0-------0-----
|-------------------------------------------------------------------------
|-----9--------9---------9-----------9---------9--------9-------9-------9-
|-7---------------------------------------0-------------------------------
|-------------------------------------------------------------------------


Post Chorus part 1

|----------------------------------
|----------------------------------
|-9-9-9-9-9-9-9-9------------------
|-9-9-9-9-9-9-9-9--7-7-7-7-7-7-7-7-
|-7-7-7-7-7-7-7-7--7-7-7-7-7-7-7-7-
|------------------7-7-7-7-7-7-7-7-


Post Chorus Part 2

|-----------------------
|-----------------------
|-5-5-------------------
|-5-5--0-0---2-2----2-2-
|-3-3--0-0---2-2----2-2-
|------0-0---2-2----2-2-

Linking Section

|--------------------------------
|--------------------------------
|--------------------------------
|-5-5-5-5-5-5-5--2-2-2-2-2-2-2-2-
|-5-5-5-5-5-5-5--2-2-2-2-2-2-2-2-
|-5-5-5-5-5-5-5--2-2-2-2-2-2-2-2-


Heavy Bit

|------------------------------------------
|------------------------------------------
|-11-9-9---7-9-9---12-10----14-12-11-12-11-
|------------------------------------------
|-9--7-7---5-7-7---10--9----12-10-9--10--9-
|------------------------------------------  to end play  the octave at 10th fret to the rhythm.

Bridge

|-----------------------------------------------------------------------------------------------
|-----------------------------------------------------------------------------------------------
|-11-11-11-11-11-11-11-11--12-12-12-12-12-12-12-12----------------------------------------------
|--------------------------------------------------12-12-12-12-12-12-12-12-12-12-12-12-12-12-12-
|-----------------------------------------------------------------------------------------------
|-----------------------------------------------------------------------------------------------

|--------------------------------------------------------------------------------------------------
|--------------------------------------------------------------------------------------------------
|-11-11-11-11--12-12-12-12-11-11-11-11-12-12-12-12-------------------------------------------------
|---------------------------------------------------9-9-9-10-10-10-12-12-12-9-9-9-10-10-10-12-12-12
|-9---9--9--9--10-10-10-10--9--9--9--9-10-10-10-10-------------------------------------------------
|--------------------------------------------------------------------------------------------------

Play last part of that twice

Play Chorus

Play Fill

Play Post chorus 1

Play Post chorus 2

Play Linking Section



|--------------------------
|--------------------------
|----------12-----------11-
|-2-2-2-2------2-2-2-2-----
|-2-2-2-2--10--2-2-2-2---9-
|-2-2-2-2------2-2-2-2-----


Ending

Play same as guitar 1

After a while Play

|-------------------------------------------------------------------
|-------------------------------------------------------------------
|-9-9-9-9-9-9-11-11-11-11-11-11-12-12-12-12-12-12-11-11-11-11-11-11-
|-------------------------------------------------------------------
|-7-7-7-7-7-7-9---9--9--9--9--9-10-10-10-10-10-10--9--9--9--9--9--9-
|-------------------------------------------------------------------

Linking Section

Play Same as Guitar 1 except strum this chord at the end

|-----
|-----
|-12-
|-----
|-10-
|-----

End!!! - same as guitar 1 except without the bend bit.

PLEASE rate this, it took me hours! Sorry its so long - it's a long song!
comments
print report bad tab
1 comment total.
0 reply
DeViN2 wrote on February 7 2007, 02:24 pm

Great tab!

I want to post or [tab]
guest
You may want to rate the tab now too:
select rating
Please do not post tabs as comments. Select "correction" instead!