Oops, an error
Loading. Please wait.

By All Accounts Today Was A Disaster Tab

version 1
version 1

Whole song

Interactive

2,930 views 1 this week
no commentswrite comment
1 2 3 4 5
please rate
add to favorites
launch autoscroll
font size
0
reset
how to read this tab
guitar tuner
Autoscroll
slow
fast
+/-
esc
set tempo
stop
Help us to improve Ultimate-Guitar.com Take our survey!
×
Author
Difficulty
novice
Only the first guitar part.

guitar 1
intro
0:00 0:06
eb|------------------------------------------------------------------------------|
Bb|-----2---2h3p2---2-------2---2h3p2---2-------2---2h3p2---2-------2---2h3p2---2|
Gb|---2---2-------2-------2---2-------2-------2---2-------2-------2---2-------2--|
Db|------------------------------------------------------------------------------|
Ab|-2-------------------2--------------------------------------------------------|
Eb|-----------------------------------------3-------------------3----------------|

0:13 armonics
eb|----------(7)-----------------------------------------------------------------|
Bd|--------------(7)-------------------------------------------------------------|
Gb|-----(7)-----------(5)-(7)----------------------------------------------------|
Db|-(7)--------------------------------------------------------------------------|
Ab|------------------------------------------------------------------------------|
Eb|------------------------------------------------------------------------------|

wasted, paralyzed
0:25 0:51
eb|------------------------------------------------------------------------------|
Bb|------------------------------------------------------------------------------|
Gb|-7-7-7--6-6-6--14--11-11-11-11-11-11-11-11-11-11-11-11-11-11--11-------7-6-2~-|
Db|-x-x-x--x-x-x--x----x-x---x-x---x-x---x-x---x-x---x-x---x-x---x----x4--7-6-2~-|
Ab|-5-5-5--4-4-4--12---9-9---9-9---9-9---9-9-- 9-9---9-9---9-9---9--------5-4-0~-|
Db|------------------------------------------------------------------------------|

0:59
one last cry.... 1:05 1:12 1:18 1:25
eb|------------------------------------------------------------------------------|
Bd|------------------------------------------------------------------------------|
Gb|------------------------------------------------------------------------------|
Db|-5-5-5-5-5-5-x several times---2-x s.t.--5-x s.t.--2-x s.t.--9~---------------|
Ab|-5-5-5-5-5-5-------------------2---------5---------2---------9~---------------|
Eb|-3-3-3-3-3-3-------------------0---------3---------0---------7~---------------|


1:31 armonics
eb|----------(7)-----------------------------------------------------------------|
Bd|--------------(7)-------------------------------------------------------------|
Gb|-----(7)-----------(5)-(7)----------------------------------------------------|
Db|-(7)--------------------------------------------------------------------------|
Ab|------------------------------------------------------------------------------|
Eb|------------------------------------------------------------------------------|

these broken animals...
1:50
eb|------------------------------------------------------------------------------|
Bb|------------------------------------------------------------------------------|
Gb|-7-7-7--6-6-6--14--11-11-11-11-11-11-11-11-11-11-11-11-11-11--11-------7-6-2~-|
Db|-x-x-x--x-x-x--x----x-x---x-x---x-x---x-x---x-x---x-x---x-x---x----x4--7-6-2~-|
Ab|-5-5-5--4-4-4--12---9-9---9-9---9-9---9-9-- 9-9---9-9---9-9---9--------5-4-0~-|
Db|------------------------------------------------------------------------------|

2:18 2:49 3:12
eb|---------------------|-----------------------------|--------------------------|
Bd|---------------------|------------------0----------|-0~-----------------------|
Gb|-----0---0------0----|------0-----0---0---0---0----|-0~-----------------------|
Db|---4-------4---------|----4-----4-----------4---4--|-4~-----------------------|
Ab|-------2------2------|--------2-----2--------------|-2~-----------------------|
Eb|-0-------------------|--0--------------------------|-0~-----------------------|

3:18
eb|-------------------------------------------------|
Bd|-3-3-2-2-2-2-2-3--3-2-2-2-2-2-2-3--3-2-2-2-2-2-3-|
Gb|-2-2-2-2-2-2-2-2--2-2-2-2-2-2-2-2--2-2-2-2-2-2-2-|
Db|-x-x-x-x-x-x-x-x--x-x-x-x-x-x-x-x--x-x-x-x-x-x-x-|
Ab|-2-2-2-2-2-2-2-2--2-2-2-2-2-2-2-2--2-2-2-2-2-2-2-|
Eb|-------------------------------------------------|

end on
3:31 (with distortion) 3:58
eb|----------------------|-------|
Bd|-3-3-2-2-2-2-2-3------|-------|
Gb|-2-2-2-2-2-2-2-2------|-------|
Db|-x-x-x-x-x-x-x-x------|--5-5~-|
Ab|-2-2-2-2-2-2-2-2------|--5-5~-|
Eb|----------------------|--3-3~-|
Suggest correction
Give kudos to tab author, rate the tab!
1 2 3 4 5
comments
print report bad tab
guest
You may want to rate the tab now too:
select rating
Wanna post a correction for this tab? Suggest correction