Oops, an error
Loading. Please wait.

By All Accountstoday Was A Disaster Bass Tab

635 views 1 this week
no commentswrite comment
1 2 3 4 5
excellent!
x 2
add to favorites
launch autoscroll
font size
0
reset
guitar tuner
Tab Pro tools
  • play this tab
  • loop segment
  • change instrument
  • show fretboard
  • metronome
Autoscroll
slow
fast
+/-
esc
set tempo
stop
Emery
By All Accounts(today was a Disaster)
Bass Tab
tuned half way down

Intro and Verse
                        6x        verse end
G|-----------------------------|------------------------|
D|-----------------------------|------------------------|
A|-22222222--------------------|---5-4-0----------------|
D|---------55-5-55-5-55-5-55---|------------------------|

Verse 2
    "one last cry"          2x
G|-----------------------------|-----------| 
D|-----------------------------|-----------|
A|-----------------------------|-----------|
D|-5555555555---2222222222-----|-2-2-------|

Intro 2x

Verse 3
"these broken animals"
                                                         3x
G|-----------------------------|----------------------------|----------|
D|-----------------------------|----------------------------|----------|
A|-5-4-0-----------------------|-22222222-------------------|-5-4-0----|
D|-------55-5-55-5-55-5-55-----|---------55-5-55-5-55-5-55-5|-------2--|

Bridge
   "gravity gets to me"
                                                    2x
G|-------------------------------------------------------|
D|-----------------------4-5-----5-4-5/7-----5-4-5/7-----|
A|-------------------2h5------2~----------0~-------------|
D|-----2--5-4-0---5--------------------------------------|

   "nights are long"                                           
G|------------------------4-7-4--------------------------------|
D|---------------------4h5------5-4---5-4-5/7-5-4---5-4-5/7-5-4|
A|-----------------2h5---------------2-------------0-----------|
D|2--5-4-5--4-0--5---------------------------------------------|
  
"make it home"
G|-----------------|
D|--7-5-4-7-5-4----|
A|-----------------|
D|---------------5-|

   guitar part
                  "Yeah"                      "make it home"         2x
G|--------------------------------------------------------------------------|
D|--------------------------------------------------------------------------|
A|-2---2~---222222-------------------------------222222-222222-222222-222222|
D|-------------------555555-555555-555555-555555----------------------------|

  End
G|--------|
D|--------|
A|--------|
D|--5-5---|


Well that's all the song       Please rate this song
comments
We did not receive enough feedback on this tab! Please rate:
print report bad tab
1 2 3 4 5
I want to post or [tab]
guest
You may want to rate the tab now too:
select rating
Please do not post tabs as comments. Select "correction" instead!