Oops, an error
Loading. Please wait.

Crumbling Tab

398 views 1 this week
no commentswrite comment
1 2 3 4 5
please rate
add to favorites
launch autoscroll
font size
0
reset
how to read this tab
guitar tuner
Autoscroll
slow
fast
+/-
esc
set tempo
stop
Help us to improve Ultimate-Guitar.com Take our survey!
×
Difficulty
Tuning
novice
D# G# C# F# A# D#
This song is in Half Step tuning, Eb Ab Db Gb Bb eb.

Intro

Guitar 1
e|-----7-----7-----7-----7-|
B|-7-8---7-8---7-8---7-8---|
G|-------------------------|
D|-------------------------|   x4
A|-------------------------|
E|-------------------------|

Guitar 2
e|-------------------------|
B|-------------------------|
G|---0---------------------|
D|-------4---4---4---4---4-| x3 then
A|-------------------------|
E|-3-------3---3---3---3---|

palm muted, distortion
A|-5-5-5-5-5-5-5-5-5-5-5-5-|
E|-3-3-3-3-3-3-3-3-3-3-3-3-|


then

G|-------------------------|
D|-4-4---4-4---4-4---4-4---|
A|-5-5---5-5---5-5---5-5---|
E|-3-3---3-3---3-3---3-3---|

G|-4-4---4-4---4-4---4-4---|
D|-4-4---4-4---4-4---4-4---| x2
A|-2-2---2-2---2-2---2-2---|
E|-------------------------|

G|-------------------------|
D|-4-4---4-4---4-4---4-4---| x2
A|-5-5---5-5---5-5---5-5---|
E|-3-3---3-3---3-3---3-3---|

e|-0-0---0-0---0-0---0-0---0---0---0---0---0---0---0-|
B|-0-0---0-0---0-0---0-0---0---0---0---0---0---0---0-|
G|-6-6---6-6---6-6---6-6---6---6---6---6---6---6---6-|
D|-6-6---6-6---6-6---6-6---6---6---6---6---6---6---6-|
A|-4-4---4-4---4-4---4-4---4---4---4---4---4---4---4-|
E|---------------------------------------------------|


Verse

Gtr 1
e|--------------------------------------------------|
B|----7-----7-----7-----7-----7-----7-----7-----7---|
G|--6---7-6---7-6---7-6---7-6---7-6---7-6---7-6---7-|
D|--------------------------------------------------|
A|--------------------------------------------------|
E|--------------------------------------------------|

Gtr 2
e|--------------------------------------------------|
B|--------3-----------3-----------3-----------3-----|
G|--------------------------------------------------|
D|----4------4----4------4----4------4----4------4--|
A|--2---2-------2---2-------2---2-------2---2-------|
E|--------------------------------------------------|

Gtr 1
e|---5-----5-----5-----5-----5-----5-----5-----5---|
B|-----7-----7-----7-----7-----7-----7-----7-----7-|
G|-9-----9-----9-----9-----9-----9-----9-----9-----|
D|-------------------------------------------------|
A|-------------------------------------------------|
E|-------------------------------------------------|

Gtr 2
e|--------------------------------------------------|
B|--------3-----------3-----------3-----------3-----|
G|--------------------------------------------------|
D|----4------4----4------4----4------4----4------4--|
A|--0---0-------0---0-------0---0-------0---0-------|
E|--------------------------------------------------|

Gtr 1
e|---2-----2-----2-----2-----2-----2-----2-----2---|
B|-----3-----3-----3-----3-----3-----3-----3-----3-|
G|-------------------------0-----0-----0-----0-----|
D|-4-----4-----4-----4-----------------------------|
A|-------------------------------------------------|
E|-------------------------------------------------|

Gtr 2
e|--------------------------------------------------|
B|--------3-----------3-----------3-----------3-----|
G|--------------------------------------------------|
D|----4------4----4------4----4------4----4------4--|
A|------2-----------2-----------2-----------2-------|
E|--0-----------0-----------3-----------3-----------|

Gtr 1
e|---7------7------7------7------6-----6-----6-----6---|
B|-----10-----10-----10-----10-----5-----5-----5-----5-|
G|-7------7------7------7------6-----6-----6-----6-----|
D|-----------------------------------------------------|
A|-----------------------------------------------------|
E|-----------------------------------------------------|

Gtr 2
e|--------------------------------------------------|
B|--------3-----------3-----------2-----------2-----|
G|----------------------------3-----------3---------|
D|----4------4----4------4------4----4------4----4--|
A|--0---0-------0---0-------1-----------1-----------|
E|--------------------------------------------------|

Repeat Verse

Chorus Chords Order (figure out the rhythm)
e|----------------0----0---|
B|------3---------0----0---|
G|-0----4----0----6----4---|
D|-4----4----4----6----5---|
A|-5----2----5----4----3---|
E|-3---------3-------------|
   G    B    G    Db   C

Verse 2 (distortion, palm muted) same things, just the order of the chords, rhythm is 
easy enough
e|---------------------------|
B|-----3---------------------|
G|-4---2-----------2---3-----| Repeat Verse 2x
D|-4---0---2---5---2---3-4---|
A|-2---0---2---5---0---1-4---|
E|-2-------0---3---------2---|
   B   D   E   G   A  Bb F# (this chord isn't necessarily played, just sounds cooler if 
you play it)

Chorus
e|----------------0-------------------0----|
B|------3---------0---------3---------0----|
G|-0----4----0----6----0----4----0----6----|
D|-4----4----4----6----4----4----4----6----|
A|-5----2----5----4----5----2----5----4----|
E|-3---------3---------3---------3---------|

Breakdown Chords
e|-0--0--0--0--0-----0--0--0--0--0--0--|
B|-0--0--0--0--0-----0--0--0--0--0--0--|
G|-4--6--0--4--0--0--6--3--0--0--6--3--|
D|-5--6--2--4--2--4--6--4--2--4--6--4--|
A|-3--4--2--2--2--5--4--4--2--5--4--4--|
E|-------0-----0--3-----2--0--3-----2--|

Pre-Chorus Synth (Play these chords)

e|-0--0--0-----|
B|-3--2--0--2--|
G|-4--2--0--3--|
D|-4--2--2--4--|
A|-2--0--2--1--|
E|-------0-----|

Chorus 2x, but add this at the end of the first time
e|-------x-------|
B|-------x-------|
G|-9-7---x--11-9-|
D|-------x-------|
A|-7-5---x--9--7-|
E|-------x-------|

and end on

e|-0-|
B|-0-|
G|-0-|
D|-2-|
A|-2-|
E|-0-|


I didn't get all the notes played during the breakdown and didn't provide the rhythm, 
but that stuff's easy enough and I think this tab is the most accurate out there. Please 
rate and enjoy! Go Emery
Suggest correction
Give kudos to tab author, rate the tab!
1 2 3 4 5
comments
print report bad tab
guest
You may want to rate the tab now too:
select rating
Wanna post a correction for this tab? Suggest correction