Oops, an error
Loading. Please wait.

Death To Inconvenience Tab

366 views 1 this week
no commentswrite comment
1 2 3 4 5
please rate
add to favorites
launch autoscroll
font size
0
reset
how to read this tab
guitar tuner
Autoscroll
slow
fast
+/-
esc
set tempo
stop
Help us to improve Ultimate-Guitar.com Take our survey!
×
Author
Difficulty
Tuning
intermediate
D A D G B E
-----------------------------------------------------------------------------
                        Death to Inconvenience - Emery
-----------------------------------------------------------------------------
Tabbed by:Latif Woods
Website:www.myspace.com/tviscomcast

Tuning:Drop Db

| /  slide up
| \  slide down
| h  hammer-on
| p  pull-off
| ~  vibrato
| +  harmonic
| x  Mute note


Guitar 1 = [1]
Guitar 2 = [2]

[1]                             [2](2nd time only)
eb|--10-10-10----10----8~----(2x)|--88--88--88----|
Bb|-----------10----10----------|-----------------|
Gb|-----------------------------|-----------------|
Db|-----------------------------|-----------------|
Ab|-----------------------------|-----------------|
Db|-----------------------------|-----------------|

Then guitar 1 switches to

[1]                             [2]
eb|-10----10----10-----8~---(2x)|--88--88--88-(2x)---|
Bb|----10----10----10----------|---------------------|
Gb|----------------------------|---------------------|
Db|----------------------------|---------------------|
Ab|----------------------------|---------------------|
Db|----------------------------|---------------------|

[1]                             [2]
eb|-13-13-13----13----10~-(2x)-|---10p8---10p8-(4x)|
Bb|----------13----13----------|-------------------|
Gb|----------------------------|-------------------|
Db|----------------------------|-------------------|
Ab|----------------------------|-------------------|
Db|----------------------------|-------------------|

[1]
eb|--17-17-17-----------------(2x)|
Bb|-------------13h15p13h15~------|
Gb|-------------------------------|
Db|-------------------------------|
Ab|-------------------------------|
Db|-------------------------------|
Verse

[2]
eb|-----------------------------|
Bb|-----------------------------|
Gb|-----------------------------|
Db|--8~--0~-5~---5~--8~--0~-----|(2x)
Ab|--8~--0~-5~---5~--8~--0~-----|
Db|--8~--0~-5~---5~--8~--0~-----|

[1](solo)

Eb|-------------------------------------------------------------|
Bb|-18-18-18-15-15h18-------------------------------------------|
Gb|-------------------14h17p14--------15h19p15h19---------------|
Db|----------------------------17p15----------------------------|
Ab|-----------------------------------------------15p14--14--14-|
Db|-------------------------------------------------------------|

[1]

Eb|--15----------------------------17----17----17----17~-----------|
Bb|-----18--15--18~p15h17h18p15-15----15----15----15-----17--------|
Gb|--------------------------------------------------------17~-----|
Db|----------------------------------------------------------------|
Ab|----------------------------------------------------------------|
Db|----------------------------------------------------------------|

[2]"...told me it would be so hard..."
Eb|--------------------------|
Bb|-17-------------------13~-|
Gb|----17--15-14-15-14~--14~-|
Db|--------------------------|
Ab|--------------------------|
Db|--------------------------|

[2]
eb|-----------------------------|
Bb|-----------------------------|
Gb|-----------------------------|
Db|--8~--0~-5~---5~--8~--0~-----|(2x)
Ab|--8~--0~-5~---5~--8~--0~-----|
Db|--8~--0~-5~---5~--8~--0~-----|

[1]"and now you say...."
Eb|-------------------17----------------------------------------------------|
Bb|-13----17p15h17-17-20--17--20--17-20--17--20-----------------------------|
Gb|---14----------------------------------------17/19\17--------------------|
Db|-------------------------------------------------------------14----------|
Ab|----------------------------------------------------------------15--17~--|
Db|-------------------------------------------------------------------------|

[1] only
Eb|--1313--1313--1313--1313--1313--1313--1313--12/--------------------------|
Bb|--1010--1010--1010--1010--1010--1010--1010--10/--------------------------|
Gb|--1010--1010--1010--1010--1010--1010--1010---9/--------------------------|
Db|-------------------------------------------------------------------------|
Ab|-------------------------------------------------------------------------|
Db|-------------------------------------------------------------------------|

[1]
Eb|--1313--1313--12-1313--1313--1313--12--1313--1212-1212--8-8---8-8--(x2)--|
Bb|--1010--1010--10-1010--1010--1010--10--1010--1010-1010--1010--1010-------|
Gb|--1010--1010--9--1010--1010--1010--9---1010--9-9--9-9---9-9---9-9--------|
Db|-------------------------------------------------------------------------|
Ab|-------------------------------------------------------------------------|
Db|-------------------------------------------------------------------------|

[2]
Eb|--1313--1313--1313--1313--1313--1313--1212--1313--1212-1212--8-8---8-8-(x2)|
Bb|--1010--1010--1010--1010--1010--1010--1010--1010--1010-1010--1010--1010----|
Gb|--1010--1010--1010--1010--1010--1010--1010--1010--9-9--9-9---9-9---9-9-----|
Db|---------------------------------------------------------------------------|
Ab|---------------------------------------------------------------------------|
Db|---------------------------------------------------------------------------|

[1]"So lets go...."
Eb|--1313--1313--1313--1313--|
Bb|--1010--1010--1010--1010--|
Gb|--1010--1010--1010--1010--|
Db|--------------------------|
Ab|--------------------------|
Db|--------------------------|

[2]
Eb|----------------------------------------------------------------------------------------------------|
Bb|----------------------------------------------------------------------------------------------------|
Gb|----------------------------------------------------------------------------------------------------|
Db|--55xx55xx55xx55xx00xx00xx00xx00xx55xx55xx55xx55xx00xx00xx00xx00xx22xx22xx22xx22xx33xx33xx33xx33xx--|
Ab|--55xx55xx55xx55xx00xx00xx00xx00xx55xx55xx55xx55xx00xx00xx00xx00xx22xx22xx22xx22xx33xx33xx33xx33xx--|
Db|--55xx55xx55xx55xx00xx00xx00xx00xx55xx55xx55xx55xx00xx00xx00xx00xx22xx22xx22xx22xx33xx33xx33xx33xx--|

[1]
Eb|-------------------------------------------------------------------------------------------------|
Bb|-------------------------------------------------------------------------------------------------|
Gb|--33xx33xx33xx33xx22xx22xx22xx22xx33xx33xx33xx33xx22xx22xx22xx22xx55xx55xx55xx55xx66xx66xx99999--|
Db|xxxxxxxxxxxxxxxxxxxxxxxxxxxxxxxxxxxxxxxxxxxxxxxxxxxxxxxxxxxxxxxxxxxxxxxxxxxxxxxxxxxxxxxxxxxxxxx--|
Ab|--11xx11xx11xx11xx00xx00xx00xx00xx11xx11xx11xx11xx00xx00xx00xx00xx33xx33xx33xx33xx44xx44xx77777--|
Db|-------------------------------------------------------------------------------------------------|

so yea thats all ive tabbed so far ill add the rest l8er or maybe u can do it and then yea.
===============================================================================
Suggest correction
Give kudos to tab author, rate the tab!
1 2 3 4 5
comments
print report bad tab
guest
You may want to rate the tab now too:
select rating
Wanna post a correction for this tab? Suggest correction