Oops, an error
Loading. Please wait.

Dont Bore Us Get To The Chorus Bass Tab

version 1
version 1

Whole song

Interactive

1,285 views 1 this week
no commentswrite comment
1 2 3 4 5
please rate
add to favorites
launch autoscroll
font size
0
reset
guitar tuner
Autoscroll
slow
fast
+/-
esc
set tempo
stop
Help us to improve Ultimate-Guitar.com Take our survey!
×
Author
Tuning
D A D G B E
-----------------------------------------------------------------------------
		     Don’t Bore Us, Get to the Chorus - Emery
-----------------------------------------------------------------------------

Tabbed By : ryan s
e-mail:

Tuning: drop d

	(0:13)those are thirteens
G|---------------------------------------------------------------------------|
D|--13/6-13-6-13-6-8-6--13-6-13-6-13-6-8--98---------------------------------|
A|---------------------------------------------------------------------------|
D|---------------------------------------------------------------------------|

	(0:30)play twice
G|---------------------------------------------------------------------------|
D|---------------------------------------------------------------------------|
A|---------------------------------------------------------------------------|
D|1-1-1-1-1-1-1-1-1-1-1-1-4-4-4-4-4-4-4-4-4-4-4-4-9-9-9-9-9-9-9-9-9-9-9-9----|

G|---------------------------------------------------------------------------|
D|---------------------------------------------------------------------------|
A|---------------------------------------------------------------------------|
D|6-6-6-6-6-6-6-6-6-6-6-6----------------------------------------------------|

	(0:49)
G|---------------------------------------------------------------------------|
D|---------------------------------------------------------------------------|
A|---------------------------------------------------------------------------|
D|-1~-4~-9~-6~-1~-4~---------------------------------------------------------|

	(0:58)
G|---------------------------------------------------------------------------|
D|---------------------------------------------------------------------------|
A|---------------------------------------------------------------------------|
D|-13-13-13-13-4-4-4-4-9-9-9-9-9-9-98-13-13-13-13-4-4-4-4-9-9-9-9-9-9-98-----|

G|---------------------------------------------------------------------------|
D|---------------------------------------------------------------------------|
A|---------------------------------------------------------------------------|
D|-13-13-13-13-16-16-16-16-9-9-9-9-9-9-9-11-13-13-13-13-4-4-4-4-9-9-9-9-9----|

	(1:23)
G|-----------------------------------------------------------------------------|
D|-----------------------------------------------------------------------------|
A|-----------------------------------------------------------------------------|
D|-1~--4-44-44-44-9~-6-66-66-66—1~---4~---9~--6-66-66-66-----------------------|

	No bass from 1:41-2:03

	(2:03)
G|---------------------------------------------------------------------------|
D|---------------------------------------------------------------------------|
A|---------------------------------------------------------------------------|
D|-13-13-13-13-4-4-4-4-9-9-9-9-9-9-98-13-13-13-13-4-4-4-4-9-9-9-9-9-9-98-----|

G|---------------------------------------------------------------------------|
D|---------------------------------------------------------------------------|
A|---------------------------------------------------------------------------|
D|-13-13-13-13-16-16-16-16-9-9-9-9-9-9-9-11-13-13-13-13-4-4-4-4-9-9-9-9-9----|

	(2:27)
G|---------------------------------------------------------------------------|
D|---------------------------------------------------------------------------|
A|---------------------------------------------------------------------------|
D|-1~--4~--9~--6~--1~--4~----------------------------------------------------|

	(2:40)play as many times as needed
G|---------------------------------------------------------------------------|
D|---------------------------------------------------------------------------|
A|---------------------------------------------------------------------------|
D|-1111-1111-1111-1111--4444-4444-4444-4444----------------------------------|

	(3:11)play twice and then end.
G|---------------------------------------------------------------------------|
D|---------------------------------------------------------------------------|
A|---------------------------------------------------------------------------|
D|-1111-1111-1111-1111--4444-4444-9999-9999----------------------------------|

G|---------------------------------------------------------------------------|
D|---------------------------------------------------------------------------|
A|---------------------------------------------------------------------------|
D|---------------------------------------------------------------------------|


| /  slide up
| \  slide down
| h  hammer-on
| p  pull-off
| ~  vibrato
| +  harmonic
| x  Mute note
===============================================================================
Suggest correction
Give kudos to tab author, rate the tab!
1 2 3 4 5
comments
print report bad tab
guest
You may want to rate the tab now too:
select rating
Wanna post a correction for this tab? Suggest correction