Oops, an error
Loading. Please wait.

Dont Bore Us Get To The Chorus Tab

version 2
version 2

Intro

Whole song

Interactive

1,904 views 1 this week
2 commentsread comments
1 2 3 4 5
2 more votes to show rating
add to favorites
launch autoscroll
font size
0
reset
how to read this tab
guitar tuner
Autoscroll
slow
fast
+/-
esc
set tempo
stop
Help us to improve Ultimate-Guitar.com Take our survey!
×
Author
Difficulty
intermediate
i only figured out the intro, but i'll try to tab the rest out soon.
tuned half step down.


eb|------------------------------------------------------------|
Bb|-----12~------------5~------------12~------------5~---------|
Gb|----12-------------5-------------12-------------5-----------|
Db|------------------------------------------------------------|
Ab|------------------------------------------------------------|
Eb|--12----12-----5-----5---------12-----12-----5--------------|

eb|------------------------------------------------------------|
Bb|-----12~------------5~------------7~------------5~----------|
Gb|----12-------------5-------------7-------------5------------| x2
Db|------------------------------------------------------------|
Ab|------------------------------------------------------------|
Eb|--12----12-------5-----5-------7-----7-------5-----5--------|

then replace the last set of 5's with:

eb|---------------|
Bb|-----8------7~-|
Gb|----9--9----8~-|
Db|---------------|
Ab|---------------|
Eb|--8------------|
|
Suggest correction
Give kudos to tab author, rate the tab!
1 2 3 4 5
comments
print report bad tab
2 comments total.
0 reply
EKCender429 254 Dec 28, 2007 12:02 PM

i gave it a 4 because there are not palm mutes
and...
(0:29)
1-----
2-----8--7-----
3----9----8-----
4-----
5-----
6--8-----7---
--

If you don't know the whole intro, don't post it

0 reply
EKCender429 254 Dec 28, 2007 12:03 PM

soryy it turned up messy up there

guest
You may want to rate the tab now too:
select rating
Wanna post a correction for this tab? Suggest correction