Oops, an error
Loading. Please wait.

Dont Bore Us Get To The Chorus Tab

version 1
version 1

Whole song

Interactive

9,621 views 3 this week
no commentswrite comment
1 2 3 4 5
accurate
x 5
add to favorites
launch autoscroll
font size
0
reset
how to read this tab
guitar tuner
Tab Pro tools
  • play this tab
  • loop segment
  • change instrument
  • show fretboard
  • metronome
×
Best way to learn
"Dont Bore Us Get To The Chorus"
Autoscroll
slow
fast
+/-
esc
set tempo
stop
Contributor
Difficulty
intermediate
-------------------------------------------------------------------------------
                Don't Bore Us, Get To The Chorus - Emery
-------------------------------------------------------------------------------
Tabbed by: Matt Wilham
Email: matt_wilham88@hotmail.com

Tuning: Eb (down half a step)

   Intro (after the "he's never gonna go away" part)
eb|-----7~---0~----7~---0~----7~---0~----5~---0~------------------------------|
Bb|----8----1-----8----1-----8----1-----7----1--------------------------------|
Gb|--/9----2----/9----2----/9----2----/7----2---------------------------------|
Db|---------------------------------------------------------------------------|
Ab|---------------------------------------------------------------------------|
Eb|---------------------------------------------------------------------------|

eb|-----7~---0~----7~---0~----7~---0~----3~---2~------------------------------|
Bb|----8----1-----8----1-----8----1-----5-----4~------------------------------|
Gb|--/9----2----/9----2----/9----2-----5------4~------------------------------|
Db|---------------------------------------------------------------------------|
Ab|---------------------------------------------------------------------------|
Eb|---------------------------------------------------------------------------|

   Verse
eb|-------------------------------------2~------------------------------------|
Bb|-------------------------------------5~------------------------------------|
Gb|-----------------5------2------------4~----------5-----2-22-2-22-2-2--2-2-2|
Db|---2------5------5-x12--2-x12--2-----2~---5------5-x12-2-22-2-22-2-2--2-2-2|
Ab|---2-x12--5-x12--3------0------2-x6--2~---5-x12--3-----0-00-0-00-0-0--0-0-0|
Eb|---0------3--------------------0-----0~---3--------------------------------|
      .      .      .      .      .          .      .       ..   ..   .

   Pre-dance part...i guess?
eb|---------------------------------------------------------------------------|
Bb|---------------------------------------------------------------------------|
Gb|----------------------5~---------2~---------------------------7~-----------|
Db|--2~--------5~--------5~---------2~--------2~---------5~------7~-----------|
Ab|--2~--------5~--------3~---------0~--------2~---------5~------5~-----------|
Eb|--0~--------3~-----------------------------0~---------3~-------------------|

Dance part..
Just play something along the lines of this. Play this twice.
eb|---------------------------------------------------------------------------|
Bb|--8-8-8-8\7-7-7-7-7\5-5-5\3-3-3-3-333--8-8-8-8-10-10-10-10-5-5-5-5-5-5-5-5-|
Gb|---------------------------------------------------------------------------|
Db|---------------------------------------------------------------------------|
Ab|---------------------------------------------------------------------------|
Eb|---------------------------------------------------------------------------|

play this part instead of the last few "5"s. You'll know where to come in at.
eb|--0~----|
Bb|--0~----|
Gb|--4~----|
Db|--5~----|
Ab|--3~----|
Eb|--------|

   Verse 2..from this point  until the "the questions" part, i'm not sure about.
           |               | 
eb|--------------------------|---------------|----------8-7-5~--5-3-----------|
Bb|-------------8-----8------|---------------|--10fb----------------5-3-------|
Gb|---------0----------------|NO CLUE!!!!!!!!|--------------------------4~-2~-|
Db|--2~--2---7h9---7h9-------|---------------|--------------------------------|
Ab|--2~--2-------------------|---------------|--------------------------------|
Eb|--0~--0-------------------|---------------|--------------------------------|

eb|---------------------------------------------------------------------------|
Bb|---------------------------------------------------------------------------|
Gb|---------------------------------------------------------------------------|
Db|---2-2-2--4-4-4--5-5-5----------2-2-2--4-4-4--4-4-4--5-5-5-----------------|
Ab|--3-3-3--6-6-6--7-7-7---4-4-4--3-3-3--5-5-5--6-6-6--7-7-7------------------|
Eb|-----------------------5-5-5-----------------------------------------------|

eb|---------------------------------------------------------------------------|
Bb|---------------------------------------------------------------------------|
Gb|---------------------------------------------------------------------------|
Db|---2-2-2--4-4-4--5-5-5----------2-2-2--4-4-4--4-4-4---4-5-7-9~~------------|
Ab|--3-3-3--6-6-6--7-7-7---4-4-4--3-3-3--5-5-5--6-6-6--7----------------------|
Eb|-----------------------5-5-5-----------------------------------------------|



Play the "dance part" again here, along with the weird "C" chord.


   Outro...."I do, I do.."
eb|---------------------------------------------------------------------------|
Bb|---------------------------------------------------------------------------|
Gb|-----------------5~------2~-----------------2~----------2-2-2~-------------|
Db|--2~------5~-----5~------2~----2~-----5~----2~----------2-2-2~-------------|
Ab|--2~------5~-----3~------0~----2~-----5~----0~----------0-0-0~-------------|
Eb|--0~------3~-------------------0~-----3~-----------------------------------|

   "never satisfied"
eb|------------------------------------------------------x-x-x-x--------------|
Bb|------------------------------------------------------x-x-x-x--------------|
Gb|------------------------------------------------------x-x-x-x--------------|
Db|--2-2-2-2-----5-5-5-5-----2-2-2-2-----5-5-5-5-----5-5-x-x-x-x--------------|
Ab|--2-2-2-2-x4--5-5-5-5-x4--2-2-2-2-x4--5-5-5-5-x3--5-5-x-x-x-x--------------|
Eb|--0-0-0-0-----3-3-3-3-----0-0-0-0-----3-3-3-3-----3-3-x-x-x-x--------------|

   "side by side"
eb|---------x------------x------------x------------x--------------------------|
Bb|---------x------------x------------x------------x--------------------------|
Gb|---------x------------x------------x------------x--------------------------|
Db|--2-2-2-2x-----5-5-5-5x-----2-2-2-2x-----5-5-5-5x-----5-5-5-5-5-5----------|
Ab|--2-2-2-2x-x4--5-5-5-5x-x4--2-2-2-2x-x4--5-5-5-5x-x3--5-5-5-5-5-5----------|
Eb|--0-0-0-0x-----3-3-3-3x-----0-0-0-0x-----3-3-3-3x-----3-3-3-3-3-3----------|

   "side    by     side"
eb|----------x-------------x-------------x------------------------------------|
Bb|----------x-------------x-------------x------------------------------------|
Gb|----------x-------------x-----5-5-5-5-x------------------------------------|
Db|--2-2-2-2-x-----5-5-5-5-x-----5-5-5-5-x------------------------------------|
Ab|--2-2-2-2-x-x4--5-5-5-5-x-x2--3-3-3-3-x-x2---------------------------------|
Eb|--0-0-0-0-x-----3-3-3-3-x-------------x------------------------------------|

   Ending
eb|----------x-------------x-------------x-----x------------------------------|
Bb|----------x-------------x-------------x-----x------------------------------|
Gb|----------x-------------x-----5-5-5-5-x--55-x-55\--------------------------|
Db|--2-2-2-2-x-----5-5-5-5-x-----5-5-5-5-x--55-x-55\--------------------------|
Ab|--2-2-2-2-x-x4--5-5-5-5-x-x2--3-3-3-3-x--33-x-33\--------------------------|
Eb|--0-0-0-0-x-----3-3-3-3-x-------------x-----x------------------------------|



| /  slide up
| \  slide down
| h  hammer-on
| p  pull-off
| ~  vibrato
| +  harmonic
| x  Mute note
===============================================================================
comments
print report bad tab
I want to post or [tab]
guest
You may want to rate the tab now too:
select rating
Please do not post tabs as comments. Select "correction" instead!