Oops, an error
Loading. Please wait.

Edge Of The World Tab

version 2
version 2

Whole song

1,714 views 1 this week
no commentswrite comment
1 2 3 4 5
excellent!
x 2
add to favorites
launch autoscroll
font size
0
reset
how to read this tab
guitar tuner
Tab Pro tools
  • play this tab
  • loop segment
  • change instrument
  • show fretboard
  • metronome
Autoscroll
slow
fast
+/-
esc
set tempo
stop
Contributor
Tuning
C# G# C# F# A# D#
-----------------------------------------------------------------
EDGE OF THE WORLD - Emery
-----------------------------------------------------------------
Tabbed by: flyinghawk

Tuning: Drop Db: Db Ab Gb Db Bb eb

*NOTE* I tabbed this out from the version from the EP "While Broken Hearts Prevail...", 
not "In Shallow Seas We Sail". So it might sound a little different from this last 
version, but it's still essentially the same.


Verse A (2x)Guitars 1 and 2:
eb|--------------------------------------------------------------|
Bb|--------------------------------------------------------------|
Gb|--------------------------------------------------------------|
Db|--4-4-x-x-x-x-x-x-x-x-x-x-x-4-4-4-x-x-x-x-x-x-x-x-x-x-x-x-----|
Ab|--4-4-x-x-x-x-x-x-x-x-x-x-x-4-4-4-x-x-x-x-x-x-x-x-x-x-x-x-----|
Db|--4-4-x-x-x-x-x-x-x-x-x-x-x-4-4-4-x-x-x-x-x-x-x-x-x-x-x-x-----|





Verse B Guitar 1:         ("this isn't how i wanted...")
eb|--------------------------------------------------------------|
Bb|--------------------------------------------------------------|
Gb|-13-13-13-13-11-11-11-11-18-18-18-18-16-16-16-16--------------|
Db|--x--x--x--x--x--x--x--x--x--x--x--x--x--x--x--x--------------|
Ab|-11-11-11-11--9--9--9--9-16-16-16-16-14-14-14-14--------------|
Db|--------------------------------------------------------------|

Guitar 2:
eb|--------------------------------------------------------------|
Bb|--------------------------------------------------------------|
Gb|-------------------------14-14-14-14--13-13-13-13-------------|
Db|-0-0-0-0-0-0-0-0-0-0-0-0--x--x--x--x--x--x--x--x--------------|
Ab|-0-0-0-0-0-0-0-0-0-0-0-0-12-12-12-12--11-11-11-11-------------|
Db|-0-0-0-0-0-0-0-0-0-0-0-0--------------------------------------|


Repeat Verse A and B

Chorus Guitars 1 and 2:
eb|--------------------------------------------------------------|
Bb|--------------------------------------------------------------|
Gb|--------------------------------------------------------------|
Db|-4-4-4-4-4-4-4-4-4-4-4-4-7-7-7-7-0-0-0-0-0-0-0-0-0-0--9-9-9-9-|
Ab|-4-4-4-4-4-4-4-4-4-4-4-4-7-7-7-7-0-0-0-0-0-0-0-0-0-0--9-9-9-9-|
Db|-4-4-4-4-4-4-4-4-4-4-4-4-7-7-7-7-0-0-0-0-0-0-0-0-0-0--9-9-9-9-|

eb|--------------------------------------------------------------|
Bb|--------------------------------------------------------------|
Gb|--------------------------------------------------------------|
Db|-4-4-4-4-4-4-4-4-4-4-4-4-7-7-7-7-0-0-0-0-0-0-0-0-0-0-2-2-2-2--|
Ab|-4-4-4-4-4-4-4-4-4-4-4-4-7-7-7-7-0-0-0-0-0-0-0-0-0-0-2-2-2-2--|
Db|-4-4-4-4-4-4-4-4-4-4-4-4-7-7-7-7-0-0-0-0-0-0-0-0-0-0-2-2-2-2--|





Verse C (2x) Guitars 1 and 2:  (note the 2's)
eb|--------------------------------------------------------------|
Bb|--------------------------------------------------------------|
Gb|--------------------------------------------------------------|
Db|--4-4-x-x-x-x-x-x-x-x-x-x-x-2-4-4-x-x-x-x-x-x-x-x-x-x-x-x-----|
Ab|--4-4-x-x-x-x-x-x-x-x-x-x-x-2-4-4-x-x-x-x-x-x-x-x-x-x-x-x-----|
Db|--4-4-x-x-x-x-x-x-x-x-x-x-x-2-4-4-x-x-x-x-x-x-x-x-x-x-x-x-----|




Verse D Guitars 1 and 2: ("you make it hard...")
eb|--------------------------------------------------------------|
Bb|--------------------------------------------------------------|
Gb|--------------------------------------------------------------|
Db|-4------------------------------------------------------------|
Ab|-4------------------------------------------------------------|
Db|-4------------------------------------------------------------|


Repeat Verse A and B


Verse E Guitars 1 and 2:  ("but i will not be..")
eb|--------------------------------------------------------------|
Bb|--------------------------------------------------------------|
Gb|-14-14-14-14-16-16-16-16-18-18-18-18-18-18-18b-18b------------|
Db|--x--x--x--x--x--x--x--x--x--x--x--x--x--x---x---x------------|
Ab|-12-12-12-12-14-14-14-14-16-16-16-16-16-16-16b-16b------------|
Db|--------------------------------------------------------------|


Repeat Chorus (2x), but Guitar 1 plays:  (note the 12's)
eb|--------------------------------------------------------------|
Bb|--------------------------------------------------------------|
Gb|--------------------------------------------------------------|
Db|-4-4-4-4-4-4-4-4-4-4-4-4-7-7-7-7-12-12-12-12-12-12-12-9-9-9-9-|
Ab|-4-4-4-4-4-4-4-4-4-4-4-4-7-7-7-7-12-12-12-12-12-12-12-9-9-9-9-|
Db|-4-4-4-4-4-4-4-4-4-4-4-4-7-7-7-7-12-12-12-12-12-12-12-9-9-9-9-|

eb|--------------------------------------------------------------|
Bb|--------------------------------------------------------------|
Gb|--------------------------------------------------------------|
Db|-4-4-4-4-4-4-4-4-4-4-4-4-7-7-7-7-0-0-0-0-0-0-0-0-0-0-2-2-2-2--|
Ab|-4-4-4-4-4-4-4-4-4-4-4-4-7-7-7-7-0-0-0-0-0-0-0-0-0-0-2-2-2-2--|
Db|-4-4-4-4-4-4-4-4-4-4-4-4-7-7-7-7-0-0-0-0-0-0-0-0-0-0-2-2-2-2--|



Interlude A Guitars 1 and 2:
eb|--------------------------------------------------------------|
Bb|--------------------------------------------------------------|
Gb|--------------------------------------------------------------|
Db|--9-9-9-9-9-9-9-9-9-9-----------------------------------------|
Ab|--9-9-9-9-9-9-9-9-9-9-----------------------------------------|
Db|--9-9-9-9-9-9-9-9-9-9-----------------------------------------|


Interlude B (4x) Guitars 1 and 2:
eb|--------------------------------------------------------------|
Bb|--------------------------------------------------------------|
Gb|--------------------------------------------------------------|
Db|--4-4-------------------------2-4-4---------------------------|
Ab|--4-4-------------------------2-4-4---------------------------|
Db|--4-4-------------------------2-4-4---------------------------|


Interlude C Guitar 1:        (play this many times)
eb|--------------------------------------------------------------|
Bb|--------------------------------------------------------------|
Gb|--------------------------------------------------------------|
Db|--4---------------------------0-------------------------------|
Ab|--4---------------------------0-------------------------------|
Db|--4---------------------------0-------------------------------|

Guitar 2 (acoustic):   Repeat this part, listen to song for timing
eb|--------------------------------------------------------------|
Bb|----10------10--------7-----7---------------------------------|
Gb|--9-------9--------9-----9------------------------------------|
Db|--------------------------------------------------------------|
Ab|--------------------------------------------------------------|
Db|--------------------------------------------------------------|


Last Chorus: same as second chorus

End on:
eb|--------------------------------------------------------------|
Bb|--------------------------------------------------------------|
Gb|--------------------x-----------------------------------------|
Db|--------------------4-----------------------------------------|
Ab|--------------------4-----------------------------------------|
Db|--------------------4-----------------------------------------|

Note: there is some feedback and/or improvising by the 2nd guitar
during the Interlude C and the last chorus.


Song order:
Verse A
Verse B
Verse A
Verse B
Chorus
Verse C
Verse D
Verse A
Verse B
Verse E
Chorus (modified)
Interlude A
Interlude B
Interlude C
Chorus (modified)

| /  slide up
| \  slide down
| h  hammer-on
| p  pull-off
| ~  vibrato
| +  harmonic
| x  Mute note
| b  bend note
comments
We did not receive enough feedback on this tab! Please rate:
print report bad tab
1 2 3 4 5
I want to post or [tab]
guest
You may want to rate the tab now too:
select rating
Please do not post tabs as comments. Select "correction" instead!