Oops, an error
Loading. Please wait.

Fractions Tab

version 1
version 1

Whole song

Interactive

5,559 views 3 this week
6 commentsread comments
1 2 3 4 5
excellent!
x 4
add to favorites
launch autoscroll
font size
0
reset
how to read this tab
guitar tuner
Autoscroll
slow
fast
+/-
esc
set tempo
stop
Help us to improve Ultimate-Guitar.com Take our survey!
×
Author
Difficulty
intermediate
Artist: Emery
Song: Fractions
By: PunkBallad420

This is a great song, by a great under-noticed Band. There Are 2 guitars both tuned a
half step down and in Drop D (I'll Try to help with the timing the most i can but to
be honest, dont be lazy it helps in the long run if you learn to do it by ear anyway:)

Intro-
(if you want to play the piano intro on guitar, its very hard and finger picked)
(guitar 1)
Eb|-----------|------|----------|------|
Bb|-----------|------|----------|------|
Gb|-7----6----|-7----|-7---6----|-7----|
Db|-----------|------|-4---7----|-5----|
Ab|------4----|-5----|----------|------|
Db|-9----7----|-5----|-9---7----|-5----|
     ..."you are here"...                               ..."disagree"...
Eb|--------------------------------------------------------------------|
Bb|---------------------10--10--10-12--------------------10------------|
Gb|-7----7---9-----9------11--11-----12-11-7---7---9---9-------7-------|
Db|----9---9----9----------------------------9---9---9-----7-9---5-4---|
Ab|-2--2-4-5---------------------------------------------------------5-|
Db|----------7--7--7--7-5-5-5-5-5--5-5--5--9-9-9-9-7-7-7-7-5-5-5-5-----|

Guitar 1 
    "Anymore...    
Eb|------------------|------------------|--------------|----------------|
Bb|------------------|------------------|--------------|----------------|
Gb|-7-7-7-7--9-9-9-9-|-6-6-6-6--7-7-7-7-|---6---6------|-----6-[--8----]|
Db|-x-x-x-x--x-x-x-x-|-x-x-x-x--x-x-x-x-|---4---4------|-----4-[--4----]|X3
Ab|-5-5-5-5--7-7-7-7-|-4-4-4-4--5-5-5-5-|-5-5-5-5--[5]-|-[5]-5-[5-5--5-]|
Db|----------------*-|--------------*---|-5-5-5-5--[5]-|-[5]-5-[5-5--5-]|
Dont play[]3rd time through                                       *
*when guitars come together
Guitar 2
first time through
Eb|---10-10-10-10-10-10\9-9-9-10p9-----10-10-10-10-10-10\9-9h10\12-|
Bb|------------------*-------------10------------------------*-----|
Gb|--------------------------------*-------------------------------|
Db|----------------------------------------------------------------|
Ab|----------------------------------------------------------------|
Db|----------------------------------------------------------------|

Guitar 2
Second time through
Eb|---10-10-10-10-10-10\9-9-9-10p9-----10-10-10-10-10-10\9-9--9-9-9-9-|
Bb|--------------------------------10---------------------------------|
Gb|-------------------------------------------------------------------|
Db|-------------------------------------------------------------------|
Ab|-------------------------------------------------------------------|
Db|-------------------------------------------------------------------|
(on third time through, just leave off last 4 9s a bend the 9 after slide

Break-
..."people Steal from you"...
Guitar 1
Eb|-----------------|-----------------|---------------|--------------|
Bb|-----------------|-----------------|---[8]---------|---[8]--------|
Gb|-7---------------|-----------------|---[7]---------|---[7]--------|
Db|-9---------------|-7---------------|---[5]---------|-5-[5]--------|X2
Ab|-9---------------|-7---------------|-5-------------|-5------------|
Db|-9---------------|-7---------------|-5-------------|-5------------|
    *                 *                 *
second time through(dont play 5s)
Guitar 2
Eb|-----------------|-----------------|---------------|-----------------|
Bb|-----------------|-----------------|---------------|-----------------|
Gb|-----------------|-----------------|---------------|-----------------|
Db|-9-9-9-9-9-9-9-9-|-9-9-9-9-9-9-9-9-|-9-9-9-9-9-9-9-|-9-9-9-9-9-9-9-9-|X2
Ab|-*---------------|-*---------------|-*-------------|-*---------------|
Db|-----------------|-----------------|---------------|-----------------|

Verse
Guitar 1
Eb|-----------------|-----------------|---------------------------------|
Bb|-----------------|-----------------|---------------------------------|
Gb|-----------------|-7-7-7-7-7-7-7-7-|-2-2-2-2-2-2-2-2-2-2-2-2-2-2-2-2-|
Db|-2-2-2-2-2-2-2-2-|-7-7-7-7-7-7-7-7-|-2-2-2-2-2-2-2-2-2-2-2-2-2-2-2-2-|X4
Ab|-2-2-2-2-2-2-2-2-|-5-5-5-5-5-5-5-5-|-0-0-0-0-0-0-0-0-0-0-0-0-0-0-0-0-|
Db|-2-2-2-2-2-2-2-2-|-----------------|---------------------------------|

Guitar 2
Eb|-------------------------|----------------------------|---------|
Bb|-------------------------|----------------------------|---------|
Gb|-12-12-12-12-12-12-12-12-|-11-11-11-11-11-11-11-11-11-|-14------|
Db|-x--x--x--x--x--x--x--x--|-x--x--x--x--x--x--x--x--x--|-x--[8X]-|X4
Ab|-10-10-10-10-10-10-10-10-|-9--9--9--9--9--9--9--9--9--|-12------|
Db|-------------------------|----------------------------|---------|
(the guitar2 changes up in the 4 times but i want to finish this so
i will do those later...this should help for now)

Pre Chorus-
Guitar 1
Eb|-----------------|-----------------|-----------------|-----------------|
Bb|-----------------|-----------------|-----------------|-----------------|
Gb|-----------------|-----------------|-----------------|-4-4-4-4-4-4-4-4-|
Db|-5-5-5-5-5-5-5-5-|-7-7-7-7-7-7-7-7-|-2-2-2-2-2-2-2-2-|-2-2-2-2-2-2-2-2-|
Ab|-5-5-5-5-5-5-5-5-|-7-7-7-7-7-7-7-7-|-2-2-2-2-2-2-2-2-|-2-2-2-2-2-2-2-2-|
Db|-5-5-5-5-5-5-5-5-|-7-7-7-7-7-7-7-7-|-2-2-2-2-2-2-2-2-|-----------------|

Guitar 2

Eb|----------|--------|---------|---------|
Bb|----------|--------|---------|---------|
Gb|-11-------|-9------|-4-4-4-4-|-6-6-6-6-|
Db|-x--[X18]-|-x-[X8]-|-x-x-x-x-|-x-x-x-x-|
Ab|-9--------|-7------|-2-2-2-2-|-4-4-4-4-|
Db|----------|--------|---------|---------|

Ok no one had this tab, so I wanted to tab it...forgeting how had of a song it was
and how long it was... I'll give the lazy typing of the chorus and be done for the
night(5:00 am)...and will finish in the next few days...

Chorus-
Guitar 1 & 2
---------
---------
-5-------
-5-2-4-5-
-7-2-4-5-
---2-4-5-

ok i promise in the next 3-5 days i will finish the chorus the right way and do the
outro...its just i'm out of red bull and my girl just woke up and i need to go take
care of that lol
Suggest correction
comments
print report bad tab
6 comments total. Showing first comments.
0 reply
duffmansweenie 54 wrote on May 23 2006, 09:41 pm

i cant even get close to trying this, wish i could rate it, sorry dude

0 reply
*Jordie1* 10 wrote on January 12 2007, 10:15 pm

yeah i agree... its a bit twisted and sorta doesn't match.. sorry...good try...

0 reply
inferno420 84 wrote on January 29 2007, 08:11 pm

it mactches infact this intro tab is friggin perfect, great work, your guitar is probly not tuned right, its not just drop d, drop the whole guitar down a half step, then drop your low e a whole step i believe
your low bass strings should look like
c#
f#
c# drop c pretty much.

guest
You may want to rate the tab now too:
select rating
Wanna post a correction for this tab? Suggest correction