Oops, an error
Loading. Please wait.

From Crib To Coffin Tab

12,351 views 6 this week
4 commentsread comments
1 2 3 4 5
excellent!
x 9
add to favorites
launch autoscroll
font size
0
reset
how to read this tab
guitar tuner
Tab Pro tools
  • play this tab
  • loop segment
  • change instrument
  • show fretboard
  • metronome
×
Best way to learn
"From Crib To Coffin"
Autoscroll
slow
fast
+/-
esc
set tempo
stop
Contributor
Difficulty
intermediate
From Crib To Coffin
I'm Only A Man
2007 Tooth And Nail

Guitar 1:Electric(D#-G#-C#-F#-A#-D#)
Guitar 2:Acoustic(D#-G#-C#-F#-A#-D#)
Guitar 2:Electric(D#-G#-C#-F#-A#-D#)
Guitar4*:Acoustic(Same tuning)

*Not An Actual Guitar Part; Piano arranged for guitar

Acoustic Chords
G  Em   B
3  0    2                   
0  0    4                   
0  0    4              
0  2    4                    
2  2    2                     
3  0    x 

s=slide
~=let ring                    
b=bend
()=ghost note
r=return
PH=pinched harmonic
f=forte(loud[the more f's the louder])


Time Signature:4/4

Intro/Guitar 2
e|-----------------|-----------------|-----------------|-----------------|
B|-----------------|-----------------|-----------------|-----------------|
G|-----------------|-----------------|-----------------|-----------------|
D|-5-5-5-5-5-5-5-5-|-5-5-5-5-5-5-5-5-|-5-5-5-5-5-5-5-5-|-5-5-5-5-5-5-5-5-|X5
A|-7-7-7-7-7-7-7-7-|-5-5-5-5-5-5-5-2-|-2-2-2-3-3-3-----|-7-7-7-7-7-7-7---|
E|--------------(7)|-----------------|-------------0-0-|-0-------------7-|

(0:39)
e|-----------------|-----------------|-----------|
B|-----------------|-----------------|-----------|
G|-----------------|-----------------|-----------|
D|-0~--------------|-5~--------------|-5---5---5-|
A|-7~--------------|-5~--------------|-2---3-----|
E|-----------------|-----------------|---------0-|




Chorus 1/Guitar 2
e|-------------------|--------------------|--------------------|-------x2--|
B|-------------------|--------------------|--------------------|-----------|
G|-------------------|--------------------|--------------------|-----------|
D|-2s-9--2s-9--2s-9--|---9--9--9--9--9--9-|-5s-10--5s-10--5s-10|-1010101010|
A|-2s-10-2s-10-2s-10-|---10-10-10-10-10---|-7s-12--7s-12--7s-12|-1212121212|
E|-0-----------------|------------------7-|-5------------------|-----------|




(When Will They Carry Me)Guitar 2
e|-----------------|-----------------|-----------------|-----------------|
B|-----------------|-----------------|-----------------|-----------------|
G|-----------------|-----------------|-----------------|-----------------|
D|-5-5-5-5-5-5-5-5-|-5-5-5-5-5-5-5-5-|-5-5-5-5-5-5-5-5-|-5-5-5-5-5-5-5-5-|X4
A|-7-7-7-7-7-7-7-7-|-5-5-5-5-5-5-5-2-|-2-2-2-3-3-3-----|-7-7-7-7-7-7-7---|
E|-----------------|-----------------|-------------0-0-|-0-------------7-|

Guitar 4*(When will they carry me)
e|-----------------|-----------------|-----------------|
B|-----------------|-----------------|-----------------|
G|-0~--------------|-0~--------------|-0~----0~----0~--|
D|-5~--------------|-5~--------------|-5~----5~----5~--|X4
A|-7~--------------|-5~--------------|-2~----3~--------|
E|-----------------|-----------------|-------------0~--|




Pre-Chorus/Guitar 2
e|-------------|--------------|-------------|--------------|
B|-------------|--------------|-------------|--------------|
G|---4---4---2-|-----2---2--2-|---4---4---2-|-----2---2--2-|
D|-------------|--------------|-------------|--------------|
A|-3---3---3---|---3----3--3--|-0---0---0---|---0----0--0--|
E|-------------|--------------|-------------|--------------|

e|-------------|--------------|-------------|-0--0-0-0-0-|
B|-------------|--------------|-------------|-0--0-0-0-0-|
G|---4---4---2-|-----2---2--2-|---4---4---5-|-5--5-5-5-5-|
D|-------------|--------------|-------------|------------|
A|-3---3---3---|---3----3--3--|-0---0---0---|------------|
E|-------------|--------------|-------------|------------|




Guitar 1 and 2 Play the chorus here
Guitar 1 doesn't slide so play the chorus
like this
Chorus                                      Ending 1,2,  | Ending 3,4
e|-------------|--------------|-------------|------------|--------------|
B|---0---0---0-|----------0-0-|-------------|---------X3-|--------------|
G|---0---0---0-|----------0-0-|---5---5---5-|--------5-5-|--5-5-5-5-5-5-|
D|-2---2---2---|--------------|-5-7-5-7-5-7-|--------7-7-|--7-7-7-7-7-7-|
A|-2---2---2---|--------------|-7---7---7---|------------|--------------|
E|-0---0---0---|--------------|-5---5---5---|------------|--------------|
                                                         |



Time Signature:3/4

Post Chorus/Guitar 1
      
e|--2-2-2-2----|--2-2-2-2-2-2-|-0--0-0-0-0--|-0--0-0-0-0-|-0--0-0-0-0-|
B|--0-0-0-0----|--3-3-3-3-3-3-|-0--0-0-0-0--|-0--0-0-0-0-|-0--0-0-0-0-|
G|-------------|--------------|-2--2-2-2-2--|-2--2-2-2-2-|-0--0-0-0-0-|
D|-------------|--------------|-------------|------------|------------|X3
A|-------------|--------------|-------------|------------|------------|
E|-------------|--------------|-------------|------------|------------|

Post Chorus/Guitar 2
e|-------------|--------------|-0--0-0-0-0--|-0--0-0-0-0-|-0--0-0-0-0-|
B|--0-0-0-0----|--3-3-3-3-3-3-|-0--0-0-0-0--|-0--0-0-0-0-|-0--0-0-0-0-|
G|--0-0-0-0----|--4-4-4-4-4-4-|-2--2-2-2-2--|-2--2-2-2-2-|-0--0-0-0-0-|
D|--2-2-2-2----|--4-4-4-4-4-4-|-2--2-2-2-2--|-2--2-2-2-2-|-2--2-2-2-2-|X3
A|--2-2-2-2----|--2-2-2-2-2-2-|-0--0-0-0-0--|-0--0-0-0-0-|-0--0-0-0-0-|
E|--0-0-0-0----|--------------|-------------|------------|------------|

Post Chorus/Guitar 3
e|-------------|--------------|-------------|------------|------------|
B|-------------|--------------|-------------|------------|------------|
G|-------------|--4-4-4-4-4-4-|-2--2-2-2-2--|-2--2-2-2-2-|-0--0-0-0-0-|X3
D|--2-2-2-2----|--4-4-4-4-4-4-|-2--2-2-2-2--|-2--2-2-2-2-|-2--2-2-2-2-|
A|--2-2-2-2----|--2-2-2-2-2-2-|-0--0-0-0-0--|-0--0-0-0-0-|-0--0-0-0-0-|
E|--0-0-0-0----|--------------|-------------|------------|------------|

Guitars 1,2,3 then repeat the above 4 measures and on the 5th measure...

Guitar 1,2,3
e|-------------|--------------|-------------|
B|-------------|--------------|-------------|
G|--5--5-5-5-5-|--5--5-5-5-5--|--5--5-5-5-5-|
D|--5--5-5-5-5-|--5--5-5-5-5--|--5--5-5-5-5-|
A|--3--3-3-3-3-|--3--3-3-3-3--|--3--3-3-3-3-|
E|-------------|--------------|-------------|






Interlude/Guitars 1+3
e|-----------|-----------|-----------|-----------|-----------|
B|-----------|-----------|-----------|-----------|-----------|
G|-----------|-----------|-----------|-----------|-4~--------|
D|-5~--------|-----------|-2~--------|-----------|-4~--------|
A|-5~--------|-----------|-2~--------|-----------|-2~--------|
E|-3---------|-----------|-0~--------|-----------|-----------|





(2:59)
Guitar 2

G   Em     B

Play that for a long time



Guitar 4*(3:22)
I figured this out on piano and 
I'm not good at transfering notes from piano to Half-Step Down Tuning
It sounds better an octave higher on guitar but
These are the exact notes taken from the piano
e|----|-------|-------|------|----|-------|
B|----|-------|-------|------|----|-------|
G|----|-0-----|-------|-0--0-|----|-------|
D|----|---4-0-|---0-4-|------|-4--|-------|
A|-2--|-------|-2-----|------|----|---4-2-|
E|----|-------|-------|------|----|-------|

(3:33)
e|----|----|------|----|----|----|
B|----|----|------|----|----|----|
G|----|----|--2-4-|----|----|----|
D|-5--|----|------|-5--|----|-4--|
A|-7--|----|------|-7--|----|-6--|
E|----|----|------|----|----|----|

(3:44)
e|-------|----|-----|----|--------|----|----|----|----|----|----|---|
B|-5-5---|-7--|-----|----|--------|----|----|----|----|----|----|---|
G|-----7-|----X2--4-|----|--------|----|----|----|----|----|----|---|
D|-------|----|---4-|----|-4--5-6-|----|-5--|-4--|----|----|----|---|
A|-------|----|-----|----|--------|----|----|----|-7--|-6--|-4--|-2-|
E|-------|----|-----|----|--------|-3--|----|----|----|----|----|---|

(4:05)
e|-------|-------|----|-------|------|-----|
B|-------|-------|----|-------|------|-----|
G|-------|-------|----|-------|------|-----|
D|-------|-------|----|-------|-0--2-|-----|
A|---0---|-----0-|----|-----0-|------|-4---|
E|-----3-|-2-3---|----|-2-3---|------|-----|

(4:15)

e|-3--2-0-|------|-0------|-------|------|------|
B|--------|-3--0-|----3-2-|-0-2---|-0----|------|
G|--------|------|--------|-----2-|--(0)-|------|
D|--------|------|--------|-------|------|-4----|
A|--------|------|--------|-------|------|------|
E|--------|------|--------|-------|------|------|


e|-------|----|-----|-----|-----|----|---|
B|-------|----|-----|-----|-----|----|---|
G|-------|----|-----|-----|-----|----|---|
D|-------|----|-----|-----|-----|----|---|
A|-----0-|-2--|--4--|-5---|-----|----|---|
E|-2-3---|----|-----|-----|--3--|-2--|---|

(4:33)
e|-------|--------|---------|------|-------|-------|
B|-------|--------|---0-3---|-0----|-0-3---|-------|
G|-------|--------|-------2-|----2-|-----2-|-------|
D|-------|------2-|---------|------|-------|-2-3-4-|
A|-----0-|--2-4---|---------|------|-------|-------|
E|-2-3---|--------|---------|------|-------|-------|

(4:44)
e|-------|----|-------|----|----|---------------|
B|-------|----|-------|-4--|----|---------------|
G|---0-2-|---X2---0-2-|-4--|----|------------0--|
D|-4-----|-0--|-4-----|----|----|-1-1--1-2-4----|
A|-------|----|-------|----|----|---------------|
E|-------|----|-------|----|----|---------------|


This is where the synth starts playing. The guitar is still
Playing its chords. And the piano still plays too but its too hard
to hear at this point.






(5:33)/Guitar 3
e|-------------|
B|-------------|
G|----------4--|Play these throughout the whole solo
D|--5---2---4--|
A|--5---2---2--|
E|--3---0------|



Solo/Guitar 1
e|---------------------------------------------------------------|
B|---------------------------------------------10--10-10--12-12--|
G|----------------11-12-11---------------------------------------|
D|-----------|-14----------14-12-12-X2--13---9-------------------|
A|---------------------------------------------------------------|
E|-7bbbbb--------------------------------------------------------|

e|-14----15-------14----15--------------11-14-11-12-12-----------|
B|----12-------------12--------------12--------------------------|
G|---------14-14-----------12--11-8------------------------------|
D|---------------------------------------------------------------|
A|---------------------------------------------------------------|
E|---------------------------------------------------------------|

e|----15--------17--------15-15--15-14---------------------------|
B|-12----14-14-----14-12---------------17-15-14------------------|
G|----------------------------------------------16-14b-----------|
D|---------------------------------------------------------------|
A|---------------------------------------------------------------|
E|---------------------------------------------------------------|

e|-----------------------------------------------------------|
B|-15---------------------------------|-12-----------------|-|
G|----16-14----------------------12-14|----14-12---12-14-X2|-|
D|----------14-14-13--13-13--14-----------------14-----------|
A|-----------------------------------------------------------|
E|-----------------------------------------------------------|

e|---------------------------PH---(SLOWLY return)------------|
B|-12--------------------------------------------------------|
G|---14-12----12-14-14b--14b-14b-14r-14r-14r--14b------------|
D|---------14------------------------------------------------|
A|-----------------------------------------------------------|
E|-----------------------------------------------------------|

(6:20)(listen to song for picking pattern)

e|-----15--14-12-11-(12)-11-----15--14-10-11------11-12-14-12-11-12-15-12-|
B|-----------------------12-----------------------------------------------|
G|------------------------------------------------------------------------|
D|------------------------------------------------------------------------|
A|------------------------------------------------------------------------|
E|------------------------------------------------------------------------|

e|--15--12--14------19-----|--15-15-14-14-------------------14-14|
B|--18b--------------------|--------------15-15-12-12-15-15------|
G|-------------------------|-------------------------------------|
D|-------------------------|-----------------------------------X2|
A|---------------------------------------------------------------|
E|---------------------------------------------------------------|
                     
                      This parts really hard to hear(tremelo pick)
                     (7:04)
e|-19---14-15--20-19-|--12--11-----14--11-------------------------|
B|-------------------|--------------------------------------------|
G|-------------------|-----------------------Repeat---------------|JustPlay 
D|-------------------|--------------------------------------------|somethin
A|-------------------|--------------------------------------------|likethat
E|-------------------|--------------------------------------------|

(7:23)Some Crazy effect

e|-19-19b-19-20-19---14--19--------------------------------------|
B|---------------------------------------------------------------|
G|---------------------------------------------------------------|
D|---------------------------------------------------------------|
A|---------------------------------------------------------------|
E|---------------------------------------------------------------|

Listen to song for rythm
(7:41)
e|------15-14-x4--19---20-19--|
B|----------------------------|X3
G|----------------------------|
D|----------------------------|
A|----------------------------|
E|----------------------------|

Then Guitar 1 joins Guitar 3 w/ the power Chords and then...


e|-----------|-----------|-----------|-----------|-----------|
B|-----------|-----------|-----------|-----------|-----------|
G|-----------|-----------|-----------|-----------|-4~--------|
D|-5~--------|-----------|-2~--------|-----------|-4~--------|
A|-5~--------|-----------|-2~--------|-----------|-2~--------|
E|-3---------|-----------|-0~--------|-----------|-----------|
FFFF


Then the synthesizer plays for the rest of the song
These chords Go along w/ the synth

G  Em   B



Well, Enjoy.
I got it about as correct as i could get it.
Questions?
Email=Ekcend@yahoo.com
Please rate and comment

comments
print report bad tab
4 comments total. Showing first comments.
0 reply
KCibanez wrote on March 12 2008, 09:45 pm

This is very good! 5*

0 reply
EKCender429 wrote on March 14 2008, 06:01 pm

Thanks

0 reply
diemilodie wrote on March 22 2008, 03:37 pm

i luv u *o*

I want to post or [tab]
guest
You may want to rate the tab now too:
select rating
Please do not post tabs as comments. Select "correction" instead!