Oops, an error
Loading. Please wait.

I Never Got To See The West Coast Chords

version 3
version 3

Whole song

1,942 views 1 this week
2 commentsread comments
1 2 3 4 5
1 last vote to show rating
add to favorites
launch autoscroll
font size
0
reset
transpose
0
reset
simplify chords
display chords
guitar tuner
Autoscroll
slow
fast
+/-
esc
set tempo
stop
Help us to improve Ultimate-Guitar.com Take our survey!
×
Author
Difficulty
Tuning
intermediate
D# G# C# F# A# D#
Emery
I Never Got to See the West Coast
1/2 Step Down


  A#sus2   F/A     C/E     Gm      Gsus2   Fsus2   Dsus2
e|--(1)--|--(1)--|--(0)--|--(3)--|--(3)--|---x---|---0---|
B|---1---|---1---|---1---|--(3)--|--(3)--|---x---|---3---|
G|---3---|---2---|---0---|---0---|---0---|---0---|---2---|
D|---3---|---3---|---2---|---0---|---0---|---3---|---0---|
A|---1---|---0---|---3---|---1---|---0---|---3---|--(0)--|
E|---x---|---x---|---0---|---3---|---3---|---1---|---x---|


  Dsus2*   A/C#    Am/C    G/B
e|---x---|---x---|---x---|---x---|
B|---x---|---x---|---x---|---x---|
G|---9---|---9---|---9---|---7---|
D|---7---|---7---|---7---|---5---|
A|---7---|---7---|---7---|---5---|
E|---10--|---9---|---8---|---7---|


A#sus2       F/A         C/E
    So is it courage or strength
        Gm           Gsus2   Gm
and is that what I'm waiting for?
A#sus2         F/A         C/E
    If I could just kill myself
         Gm    Gsus2   Gm
would it also kill the remorse?
A#sus2          F/A      C/E
    I wanted so badly to catch a break
        Gm   Gsus2   Gm
but I'm only breaking down.
A#sus2                 F/A
    I'm still here and standing
            C/E
but if it's up to me
    Gm  Gsus2   Gm           A#sus2 F/A           C/E
I don't think        I'll be             hanging around


    Fsus2
The drink slips down my throat
        F/A
and the burn cures nice and slow.
        Gm                                 C/E
All the worst parts I wouldn't want you to see
                       Fsus2
The only parts left of me

Now, here I am
       Dsus2
Just a kid without a better plan.
             F/A                               Gm
But it's the simple thoughts that haunt me the most.
  C/E
I never got to see the west coast.


Interlude
  A#sus2       Dsus2
e|------------------------------------------|
B|o----------10-----------------------------|
G|--------10----10~--10-12-10-12-10-12-10---|
D|--10h12-----------------------------------|
A|o-----------------------------------------|
E|------------------------------------------|                                         
  A#sus2       Dsus2                           
e|-----------------------------------------|
B|----------13-10~------------------------o|
G|-------10---------10-10-10-10-9-9-9------|
D|-10h12-----------------------------------|
A|----------------------------------------o|
E|-----------------------------------------|
   C/E
e|----------------------|
B|----------------------|
G|----------------------|
D|-12-12-12-12-10-10-10-|
A|----------------------|
E|----------------------|


A#sus2       F/A                C/E
    Spent my nights just asking why
       Gm   Gsus2  Gm  
Would God let me become like this.
A#sus2       F/A           C/E
    Was it a joke from the start?
          Gm     Gsus2  Gm 
Was I supposed to laugh more at it?
A#sus2             F/A                        C/E
    And everyone's quoting their teachers and preachers
           Gm          Gsus2   Gm
but their words make me feel so alone.
A#sus2     F/A~                   C/E~
    No one ever says that they've had those thoughts
         Gm   Gsus2  Gm
in the middle of the night.
Asus2~     F/A~                   C/E~
    No one ever admits that they wanted to take their life.


      Fsus2
The drink slips down my throat
         F/A
and the burn cures nice and slow.
         Gm                                 C/E
All the worst parts I wouldn't want you to see
                       Fsus2
The only parts left of me

Now, here I am
        Dsus2
Just a kid without a better plan.
             F/A                               Gm
But it's the simple thoughts that haunt me the most.
    C/E
I never got to see the west coast.


Repeat Interlude

             Dsus2*
But it's the life I dreamed I have
     A/C#
The love I find in my grasp
     Am/C                        G/B
The words I could share with someone.
        Dsus2*
Those thoughts keep the breath in my lungs
       A/C#
That tomorrow my hope will become
   Am/C                            G/B
fulfilled by a love that can't be undone.
    A#sus2    F/A         C/E
And save    a wretch like me.

Chorus
          Fsus2
So if the drink slips down your throat
        F/A
and the burn cures nice and slow.
         Gm                                  C/E   
All the worst parts you wouldn't want me to see.
                          Fsus2
The same parts, I have in me
                          Dsus2
Now, scares me too we are both this way.
                    F/A
I feel just like you do.
                                        Gm
But when you're by yourself you should know
    C/E
One day we got to see the west coast. 


Repeat interlude

end on A#sus2
Suggest correction
Give kudos to tab author, rate the tab!
1 2 3 4 5
comments
print report bad tab
2 comments total.
0 reply
EaglesNumber5 10 Jan 22, 2012 05:03 PM

Why do you say to end on A#sus2? At the top, you have it as Bbsus2. As we all should know, A# is the same thing as Bb.

0 reply
thefletch13 554 Jan 24, 2012 07:20 PM

I had it typed as A#sus2 throughout the whole song, but when it highlighted the chords, it must have automatically changed them to Bb.

guest
You may want to rate the tab now too:
select rating
Wanna post a correction for this tab? Suggest correction