Oops, an error
Loading. Please wait.

In A Win Win Situation Bass Tab

899 views 1 this week
no commentswrite comment
1 2 3 4 5
please rate
add to favorites
launch autoscroll
font size
0
reset
guitar tuner
Autoscroll
slow
fast
+/-
esc
set tempo
stop
Help us to improve Ultimate-Guitar.com Take our survey!
×
Contributor
Difficulty
intermediate
EMERY- In a win, win situation

I've noticed your design...
So I'll pray...
G-------------------1-3-|
D-----------------1-----| X2	
A------2---2------------|
E--4-4---4---4-4--------|

To make these miles disappear...
G-----------------------|
D-----------------------| X2
A--4-4-4-4-4-4-4-4------|
E-----------------------|

If you can't sleep...
G-----------------------|-----------1-1-1-1-1-1-|--1-1-1-1-1--3-3-3-4-|
D--2--2-2-2-2-2-2--4--4-|-4-4-4-4-4-------------|---------------------|
A-----------------------|-----------------------|---------------------|
E-----------------------|-----------------------|---------------------|

If you can't sleep alone
G-----------------------|-----------------------|
D--2--2-2-2-2-2-2--4--4-|-4-4-4-4-4-------------|
A-----------------------|-----------------------|
E-----------------------|-----------------------|

If you're measuring with time...
G-------------------1----|
D----------------4-------| X2
A------2----2------------|
E--4-4----4---4----------|

There's no difference...
G------------------------|----------------------|
D------------------------|-------------------4--|
A--4-4-4-4-4-4-4-4-4-----|--4-4-4-4-4-4-4-4-----|
E------------------------|----------------------|

But there's nothing at all...
G-------------------1----|
D----------------4-------| X2
A------2----2------------|
E--4-4----4---4----------|

To relax my view...
G------------------------|----------------------|
D------------------------|-------------------4--|
A--4-4-4-4-4-4-4-4-4-----|--4-4-4-4-4-4-4-4-----|
E------------------------|----------------------|

So I'll pray...
G-------------------1----|
D----------------4-------| X2
A------2----2------------|
E--4-4----4---4----------|

To make these miles disappear 
G------------------------|----------------------|
D------------------------|----------------------|
A--4-4-4-4-4-4-4-4-4-----|--4-4-4-4-4-4-4-4-----|
E------------------------|----------------------|

If you can't sleep alone...
G------------------------|-----------1-1-1-1-1-1-|-1-1-1-1-1--3-4-1-----|
D--2--2-2-2-2-2-2--4--4--|-4-4-4-4-4-------------|------------------4-2-|
A------------------------|-----------------------|----------------------|
E------------------------|-----------------------|----------------------|

If you can't hear the song...
G------------------------|-----------1-1-1-1-1-1-|-1-1-1-1-1-3-4-6-4----|
D--2--2-2-2-2-2-2--4--4--|-4-4-4-4-4-------------|------------------4-2-|
A------------------------|-----------------------|----------------------|
E------------------------|-----------------------|----------------------|

If you cast that first stone...
G------------------------|-----------1-1-1-1-1-1-|-1-1-1-1-1--3-4-6-8-9-|
D--2--2-2-2-2-2-2--4--4--|-4-4-4-4-4-------------|----------------------|
A------------------------|-----------------------|----------------------|
E------------------------|-----------------------|----------------------|

G------------------------|--------------4--------|
D--2--2-2-2-2-2-2--4--4--|-4-4-4-4-4-------------|
A------------------------|-----------------------|
E------------------------|-----------------------|

SILENCIO 10 SEGUNDOS

I start to sleep but it's not over...
G------------------------|-----------------------|-1-1-1-1-1-1-1-1-1-1-1-|-----------------------|
D------------------------|-1-1-1-1-1-1-1-1-1-1-1-|-----------------------|-----------------------|
A-2-2-2-2-2-2-2-2-2-2-2--|-----------------------|-----------------------|-4-4-4-4-4-4-4-4-4-4-4-|
E------------------------|-----------------------|-----------------------|-----------------------|

ESO SE REPITE HASTA QUE TERMINA LA CANCION


sacada por nico.corrrr@skate.la
comments
We did not receive enough feedback on this tab! Please rate:
print report bad tab
1 2 3 4 5
I want to post or [tab]
guest
You may want to rate the tab now too:
select rating
Please do not post tabs as comments. Select "correction" instead!