Oops, an error
Loading. Please wait.

In A Win Win Situation Tab

3,596 views 1 this week
no commentswrite comment
1 2 3 4 5
2 more votes to show rating
add to favorites
launch autoscroll
font size
0
reset
how to read this tab
guitar tuner
Autoscroll
slow
fast
+/-
esc
set tempo
stop
Help us to improve Ultimate-Guitar.com Take our survey!
×
Author
Tabbed by Devin Davis
Another awesome Emery song from there 2nd major release "The question". 
Play around with the strumming and the rhythm by listening to the song 
while you play it. Hope you enjoy it!

Tuned Drop C#. 


VERSE
|-----------------------------------------------------------------------------------|
|-------1-----1-----------1-----1-----------1-----1-----------1------0-----1--------|
|---2-----2-----------2-----2-----------2-----2-----------2------2-----2-----2---2--|
|-----2-----2-------3---3-----3-------0---0-----0-------0---0------0-----0-----0----|
|-0---------------------------------------------------------------------------------|
|-----------------------------------------------------------------------------------|


CHORUS
|-----------------------|
|-----------------------|
|--5----7----9----9--7--|
|--3----5----7----7--5--|
|--3----5----7----7--5--|
|--3----5----7----7--5--|


LEAD PART BEFORE BRIDGE
|----------------3------------------------3----------|
|-1/3-5p3--1/3-5---5-3------1/3-5p3-1/3-5---5-0-3b5--|
|-----------------------2/4--------------------------|
|----------------------------------------------------|
|----------------------------------------------------|
|----------------------------------------------------|


BRIDGE/ENDING
|--0----0----0----0--|
|--0----0----0----3--|
|--5----0----2----2--|
|--5----2----2----0--|
|--3----2----0----0--|
|-------2---------0--|


If you have any questions E-mail me at crayola_22_88@yahoo.com 
Thanks!
Suggest correction
Give kudos to tab author, rate the tab!
1 2 3 4 5
comments
print report bad tab
guest
You may want to rate the tab now too:
select rating
Wanna post a correction for this tab? Suggest correction