Oops, an error
Loading. Please wait.

Left With Alibis And Lying Eyes Tab

version 2
version 2

Whole song

994 views 1 this week
1 commentread comment
1 2 3 4 5
2 more votes to show rating
add to favorites
launch autoscroll
font size
0
reset
how to read this tab
guitar tuner
Autoscroll
slow
fast
+/-
esc
set tempo
stop
Help us to improve Ultimate-Guitar.com Take our survey!
×
Author
Difficulty
Tuning
intermediate
C# G# C# F# A# D#
Left With Alibis and Lying Eyes
Emery
The Question (2005)
Tabbed by: Rob Fletcher

Drop Db Tuning (Db Ab Db Gb Bb Eb)


   Intro/Verse 1 (Clean)
eb|-------------------------------------------------------------------|
Bb|-------------------------------------------------------------------|
Gb|-------------------------------------------------------------------|
Db|-----3------3-------3-------3-------3-------3-------3-------3------| x6
Ab|--5---5---5--5---5---5---5---5---5---5---5---5---5---5---5---5-----|
Db|-0-0-----0-0----0-0-----0-0-----5-5-----5-5-----5-5-----5-5--------|


   Pre-Chorus 1 (Clean)
eb|-------------------------------------------------------------------|
Bb|-------------------------------------------------------------------|
Gb|-------------------------------------------------------------------|
Db|-0-0-0--0-0-0--10-10-10--5~----------------------------------------|
Ab|-5-5-5--8-8-8--12-12-12--8~----------------------------------------|
Db|-0-0-0--0-0-0--10-10-10--5~----------------------------------------|


   Chorus
   Guitar 1 (Distortion)
eb|-------------------------------------------------------------------|
Bb|-------------------------------------------------------------------|
Gb|-------------------------------------------------------------------|
Db|-3-3-0-0-xx-3-3-0-3-3-0--3-3--3h5-5--3h5-5--3-5-3-0----------------|
Ab|-3-3-0-0-xx-3-3-0-3-3-0--3-3--3h5-5--3h5-5--3-5-3-0----------------|
Db|-3-3-0-0-xx-3-3-0-3-3-0--3-3--3h5-5--3h5-5--3-5-3-0----------------|
  |            . . .                                                  |
  |Guitar 2 (Distortion)                                              | x4
eb|-------------------------------------------------------------------|
Bb|-------------------------------------------------------------------|
Gb|-10-10\7-7-xx-10-10\7-7/10-10\7-7--10/12-12------------------------|
Db|--x--x-x-x-xx--x--x-x-x--x--x-x-x---x--x--x(x14, gradually bend)---|
Ab|--8--8\5-5-xx--8--8\5-5/-8--8\5-5---8/10-10------------------------|
Db|-------------------------------------------------------------------|


   Post-Chorus
   Guitar 1 (Distortion)
eb|-------------------------------------------------------------------|
Bb|-----5-------5x5h6------5------------------------------------------|
Gb|------5~-----------------5~----------------------------------------|
Db|-0-0-----0-0--------5-5-----3/5-5-3/7\3----------------------------|
Ab|-------------------------------------------------------------------|
Db|-------------------------------------------------------------------|
  |                                                                   |
  |Guitar 2 (Distortion)                                              |
eb|-------------------------------------------------------------------|
Bb|-------------------------------------------------------------------|
Gb|-------------------------------------------------------------------|
Db|-0000000000000000---5555555555555555-------------------------------|
Ab|-0000000000000000---5555555555555555-------------------------------|
Db|-0000000000000000---5555555555555555-------------------------------|


   Verse 2
   Guitar 1 (Clean)
eb|-------------------------------------------------------------------|
Bb|-------------------------------------------------------------------|
Gb|-------------------------------------------------------------------|
Db|---3--3--3--3--3-----3--3--3--3--3---------------------------------|
Ab|--5--5--5--5--5-5---5--5--5--5--5-5--------------------------------|
Db|-0--0--0--0--0-----5--5--5--5--5-----------------------------------|
  |                                                                   |
  |Guitar 2 (Distortion)                                              | x2
eb|-------------------------------------------------------------------|
Bb|-------------------------------------------------------------------|
Gb|-------------------------------------------------------------------|
Db|-0000000000000000--5555555555555555--------------------------------|
Ab|-0000000000000000--5555555555555555--------------------------------|
Db|-0000000000000000--5555555555555555--------------------------------|
    ................  ................


   Pre-Chorus 2 (Clean)
eb|-------------------------------------------------------------------------|
Bb|-------------------------------------------------------------------------|
Gb|-------------------------------------------------------------------------|
Db|-8--8--8--8---8-8-8-8--8--8--8--8---8-8-8-8--10-10-10-10-10-10-10-10-10--|
Ab|-10-10-10-10--8-8-8-8--10-10-10-10--8-8-8-8--13-13-13-13-13-13-13-13-13--|
Db|-8--8--8--8---8-8-8-8--8--8--8--8---8-8-8-8--10-10-10-10-10-10-10-10-10--|
  |                                                                         |
eb|-------------------------------------------------------------------------|
Bb|-------------------------------------------------------------------------|
Gb|-------------------------------------------------------------------------|
Db|-3-3-3-3--3-3-3-3--3-3-3-3--5-5-5-5--3-3-3-3-3-3-3-3--2-2-2-2-2-2-2-2----|
Ab|-7-7-7-7--3-3-3-3--7-7-7-7--3-3-3-3--0-0-0-0-0-0-0-0--0-0-0-0-0-0-0-0----|
Db|-3-3-3-3--3-3-3-3--3-3-3-3--3-3-3-3--0-0-0-0-0-0-0-0--0-0-0-0-0-0-0-0----|
  |                                                                         |
eb|-------------------------------------------------------------------------|
Bb|-------------------------------------------------------------------------|
Gb|-------------------------------------------------------------------------|
Db|-8--8--8--8---8-8-8-8--8--8--8--8---10-10-10-10--10-10-10-10-10-10-10-10-|
Ab|-12-12-12-12--8-8-8-8--12-12-12-12--8--8--8--8---10-10-10-10-10-10-10-10-|
Db|-8--8--8--8---8-8-8-8--8--8--8--8---8--8--8--8---10-10-10-10-10-10-10-10-|


   Chorus
   Guitar 1 (Distortion)
eb|-------------------------------------------------------------------|
Bb|-------------------------------------------------------------------|
Gb|-------------------------------------------------------------------|
Db|-3-3-0-0-xx-3-3-0-3-3-0--3-3--3h5-5--3h5-5--3-5-3-0----------------|
Ab|-3-3-0-0-xx-3-3-0-3-3-0--3-3--3h5-5--3h5-5--3-5-3-0----------------|
Db|-3-3-0-0-xx-3-3-0-3-3-0--3-3--3h5-5--3h5-5--3-5-3-0----------------|
  |            . . .                                                  |
  |Guitar 2 (Distortion)                                              | x4
eb|-------------------------------------------------------------------|
Bb|-------------------------------------------------------------------|
Gb|-10-10\7-7-xx-10-10\7-7/10-10\7-7--10/12-12------------------------|
Db|--x--x-x-x-xx--x--x-x-x--x--x-x-x---x--x--x(x14, gradually bend)---|
Ab|--8--8\5-5-xx--8--8\5-5/-8--8\5-5---8/10-10------------------------|
Db|-------------------------------------------------------------------|


   Breakdown (Distortion)
eb|-------------------------------------------------------------------------|
Bb|-------------------------------------------------------------------------|
Gb|-------------------------------------------------------------------------|
Db|-000000000000000000000000000000000000000000000000------------------------|
Ab|-000000000000000000000000000000000000000000000000------------------------|
Db|-000000000000000000000000000000000000000000000000------------------------|
  | ................................................                        |
eb|-------------------------------------------------------------------------|
Bb|-------------------------------------------------------------------------|
Gb|-------------------------------------------------------------------------|
Db|-88-xxx-88-xxx-77-xxx-77-xxx-88-xxx-88-xxx-77-xxx-7/10-10-10-10-10-------|
Ab|-88-xxx-88-xxx-77-xxx-77-xxx-88-xxx-88-xxx-77-xxx-7/10-10-10-10-10-------|
Db|-88-xxx-88-xxx-77-xxx-77-xxx-88-xxx-88-xxx-77-xxx-7/10-10-10-10-10-------|
  |                                                                         |
eb|-------------------------------------------------------------------------|
Bb|--------666666b--------555555b--------555555b--------555555b-------------|
Gb|--------777777b--------777777b--------666666b--------666666b-------------|
Db|-000000---------000000---------000000---------000000--------------(x2)---|
Ab|-000000---------000000---------000000---------000000---------------------|
Db|-000000---------000000---------000000---------000000---------------------|
    ......         ......         ......         ......


   Pre-Chorus 1 (Clean)
eb|-------------------------------0~----------------------------------|
Bb|-------------------------------0~----------------------------------|
Gb|-------------------------------0~----------------------------------|
Db|-0-0-0--0-0-0--10-10-10--5~----------------------------------------|
Ab|-5-5-5--8-8-8--12-12-12--8~----------------------------------------|
Db|-0-0-0--0-0-0--10-10-10--5~----------------------------------------|


   Chorus
   Guitar 1 (Distortion)
eb|-------------------------------------------------------------------|
Bb|-------------------------------------------------------------------|
Gb|-------------------------------------------------------------------|
Db|-3-3-0-0-xx-3-3-0-3-3-0--3-3--3h5-5--3h5-5--3-5-3-0----------------|
Ab|-3-3-0-0-xx-3-3-0-3-3-0--3-3--3h5-5--3h5-5--3-5-3-0----------------|
Db|-3-3-0-0-xx-3-3-0-3-3-0--3-3--3h5-5--3h5-5--3-5-3-0----------------|
  |            . . .                                                  |
  |Guitar 2 (Distortion)                                              | x4
eb|-------------------------------------------------------------------|
Bb|-------------------------------------------------------------------|
Gb|-10-10\7-7-xx-10-10\7-7/10-10\7-7--10/12-12------------------------|
Db|--x--x-x-x-xx--x--x-x-x--x--x-x-x---x--x--x(x14, gradually bend)---|
Ab|--8--8\5-5-xx--8--8\5-5/-8--8\5-5---8/10-10------------------------|
Db|-------------------------------------------------------------------|



************************************

| .   palm mute
| /   slide up
| \   slide down
| h   hammer-on
| p   pull-off
| ~   vibrato
| +   harmonic
| x   Mute note
| b   Bend
| pb  Pre-bend
| br  Bend release
| pbr Pre-bend release
| brb Bend release bend

************************************
Suggest correction
Give kudos to tab author, rate the tab!
1 2 3 4 5
comments
print report bad tab
1 comment total.
0 reply
midwestisbest7 40 Oct 30, 2014 11:22 PM

perfect. thank you.

guest
You may want to rate the tab now too:
select rating
Wanna post a correction for this tab? Suggest correction