Oops, an error
Loading. Please wait.

Note From Which A Chord Is Built Tab

version 1
version 1

Whole song

Interactive

1,964 views 1 this week
1 commentread comment
1 2 3 4 5
excellent!
x 1
add to favorites
launch autoscroll
font size
0
reset
how to read this tab
guitar tuner
Tab Pro tools
  • play this tab
  • loop segment
  • change instrument
  • show fretboard
  • metronome
Autoscroll
slow
fast
+/-
esc
set tempo
stop
Contributor
Difficulty
novice
Emery
"The Note From Which A Chord Is Built"

Drop Db Tuning (It's a pain in the butt, but it's how the band does it)
Db  Ab  Db  Gb  Bb  Eb
Put guitar into drop D, then put every string a step lower :)


(drum intro)

Gtr. 1
Eb---------------------------------------------------|
Bb---------------------------------------------------|
Gb---------------------------------------------------|
Db------12-9---7/9/7----------12-9-------9-----------|
Ab--10-------------------10------------12------------|
Db---------------------------------------------------|

Gtr. 2
Eb---------------------------------------------------|
Bb---------------------------------------------------|
Gb---------------------------------------------------|
Db--5----------10----------5----------0--------------|
Ab--5-(10x)----10-(10x)----5-(10x)----0-(10x)--------|
Db--5----------10----------5----------0--------------|

Gtr. 1
Eb------|
Bb------|
Gb------|
Db--5~--
Ab------|
Db------|

Gtr. 2
(clean, very softly)("With my uncovered eyes...")
Eb-----------------------------------------------------|
Bb-----------------------------------------------------|
Gb--7----------12---------7---------14-----------------|
Db--5----------10---------5---------12-----------------|
Ab--5-(10x)----10-(10x)---5-(10x)---12-(10x)-----------|
Db--5----------10---------5---------12-----------------|

Gtr. 1
Come back in on ("Your hand is wrapped in mine...")
Eb---------------------------------------------------|
Bb---------------------------------------------------|
Gb---------------------------------------------------|
Db------12-9---7/9/7---------12-9--------9-----------|
Ab--10-------------------10-----------12-------------|
Db---------------------------------------------------|


("...for the last time.")

Gtr. 2
Eb---------------------------------------------------------------------|
Bb---------------------------------------------------------------------|
Gb---------------------------------------------------------------------|
Db--10-10-10---------10-10-10---------5-5-5---------4-4---10~----------|
Ab--10-10-10-(lead)--10-10-10-(lead)--5-5-5-(lead)--4-4---10~-(fade)---|
Db--10-10-10---------10-10-10---------5-5-5---------4-4---10~----------|

Gtr. 1
(lead played when rhythm pauses)
guitar and keyboard plays:
Eb--------------------|
Bb--------------------|
Gb--12-11-7-4---------|
Db--------------------|
Ab--------------------|
Db--------------------|


("Carpet stains from coffee...")
(bass, drums and keyboards play w/ vocals | no guitars)


Gtr. 2
Come in on ("Paralyzed...I thought I'd heard...")
Clean and very soft:
Eb---------------------------------------------------------------------|
Bb---------------------------------------------------------------------|
Gb--12---------7---------12---------9---------------------12-----------|
Db--10---------5---------10---------7---------------------10-----------|
Ab--10-(12x)---5-(12x)---10-(12x)---7-(12x)---(buildup>)--10-(12x)-----|
Db--10---------5---------10---------7---------------------10-----------|

Gtr. 1
("...death. Wake up my life.")
(continue this lead until all guitars drop out)
Eb---------------------------------------------------|
Bb---------------------------------------------------|
Gb---------------------------------------------------|
Db------12-9---7/9/7---------12-9---------9----------|
Ab--10-------------------10-----------12-------------|
Db---------------------------------------------------|

Gtr. 2
Eb--------------------------------------------------|
Bb--------------------------------------------------|
Gb--------------------------------------------------|
Db--5---------10---------5---------0----------------|
Ab--5-(10x)---10-(10x)---5-(10x)---0-(10x)----------|
Db--5---------10---------5---------0----------------|


Gtr. 2
Eb--10~-10~-12~-12--10~-10~-10~------------------|
Bb-----------------------------------------------|
Gb-----------------------------------------------|
Db-----------------------------------------------|
Ab-----------------------------------------------|
Db-----------------------------------------------|

All music drops but drums
Drum Outro
-----------------

Comments to awholtzapple@yahoo.com
comments
We did not receive enough feedback on this tab! Please rate:
print report bad tab
1 2 3 4 5
1 comment total.
0 reply
wake behind you wrote on October 3 2007, 06:16 pm

excellent tab

I want to post or [tab]
guest
You may want to rate the tab now too:
select rating
Please do not post tabs as comments. Select "correction" instead!