Oops, an error
Loading. Please wait.

Playing With Fire Tab

7,135 views 3 this week
no commentswrite comment
1 2 3 4 5
excellent!
x 5
add to favorites
launch autoscroll
font size
0
reset
how to read this tab
guitar tuner
Autoscroll
slow
fast
+/-
esc
set tempo
stop
Help us to improve Ultimate-Guitar.com Take our survey!
×
Author
This song was done by Adam K, the only website ive been able to find it on is
i did was put out all six string so it would be easier to read, i hope u guys enjoy his tab
Intro
Keyboard
then...
Gtr. 1
D#|--------------------------|
A#|---------12---10----------|
F#|-5---4--------------------|x2
C#|--------------------------|
G#|--------------------------|
C#|--------------------------|
Gtr. 2
D#|-------------------------------------------|
A#|----------------------------------0--------|
F#|----------------------------------------2--|
C#|-7---5---0---3----7---5---0-----2---2-0-0--|
G#|-7---5---0---3----7---5---0----------------|
C#|-7---5---0---3----7---5---0---3------------|

Verse 1
D#|--------------------------------------------------|
A#|--------------------------------------------------|
F#|-5-5-5-5-5-5-5-5-5-5-5-5-5-5-5-5-5-5-5-5-5-5-5-5--|
C#|-7-7-7-7-7-7-7-7-7-7-7-7-7-7-7-7-7-7-7-7-7-7-7-7--|x2
G#|-------------------------5-5-5-5-5-5-5-5-5-5-5-5--|
C#|--------------------------------------------------|

Chorus
Gtr. 2
D#|--------------------------------------------------------------------------|
A#|-----------------------------------------------------------------0--------|
F#|-----------------------------------------------------------------------2--|
C#|-7---5---0---3---7---5---0---3---7---5---0---3---7---5---0-----2---2-0-0--|
G#|-7---5---0---3---7---5---0---3---7---5---0---3---7---5---0----------------|
C#|-7---5---0---3---7---5---0---3---7---5---0---3---7---5---0---3------------|

Gtr. 1
D#|-12-15--10---8s10/12---------12-15--10s8---5-7/8---5--|
A#|---------------------12-13----------------------------|x2
F#|------------------------------------------------------|
C#|------------------------------------------------------|
G#|------------------------------------------------------|
C#|------------------------------------------------------|

Verse 2
Gtr. 1
D#|---------------|
A#|--------0------|
F#|---5-------5---|
C#|-----5---------|x4
G#|-0-------------|
C#|---------------|
Then

Gtr. 2
D#|------------------------------------------|
A#|--------------12---12-----12---12---------|
F#|------------12---12-----12---12-----------|
C#|-0------7--------------------------0------|
G#|-0------7--------------------------0------|
C#|-0------7--------------------------0------|
Gtr. 1
D#|---------------|
A#|--------0------|
F#|---5-------5---|
C#|-----5---------|x12
G#|-0-------------|
C#|---------------|
Then
D#|-------------------------------------|
A#|-13s6---13--13/12/10/8-13s6----------|
F#|--xsx----x---x/-x/-x/x--xsx---9--7---|
C#|-10s3---10--10/-9/-7/5-10s3---x--x---|
G#|------------------------------7--5---|
C#|-------------------------------------|

Interlude
Gtr. 2
D#|-------------------------|
A#|-------------------------|
F#|-------------------------|
C#|-7------0------7------0--|
G#|-7------0------7------0--|
C#|-7------0------7------0--|
Gtr. 1
D#|-5---5--3---3--5---5--3---3---5---5--5---5--7---7--5---5---|
A#|--0-0----0-0----0-0----0-0-----0-0----0-0----0-0----0-0----|
F#|---5------5------5------5-------5------5------5------5-----|
C#|-----------------------------------------------------------|
G#|-----------------------------------------------------------|
C#|-----------------------------------------------------------|

D#|-5---5------5----5---5--5---5--5---5--7---7--8---8--10---10--|
A#|--0-0--------0----0-0----0-0----0-0----0-0----0-0-----0-0----|
F#|---5----4s5---5----5------5------5------5------5-------5-----|
C#|-------------------------------------------------------------|
G#|-------------------------------------------------------------|
C#|-------------------------------------------------------------|

Then
Gtr. 2
D#|----------------------------------|
A#|----------------------------------|
F#|----------------------------------|
C#|-7---10---3---0---3---0---3---6---|
G#|-7---10---3---0---3---0---3---7---|
C#|-7---10---3---0---3---0---3---6---|

Gtr. 1
D#|--------------------------------------------------------------------------|
A#|--12--12---10-8-10---12--12---13-10-8---12--12---10-8-10---12--12---6/5/6-|
F#|12--12--12---------12--12--12---------12--12--12---------12--12--12-------|
C#|--------------------------------------------------------------------------|
G#|--------------------------------------------------------------------------|
C#|--------------------------------------------------------------------------|


Then
Gtr. 2

D#|--------------------------------------------------|
A#|--------------------------------------------------|
F#|--------------------------------------------------|
C#|-7-7-7-7-7-7-7-7-7-7-7-7-0-0-0-0-0-0-0-0-0-0-0-0--|
G#|-7-7-7-7-7-7-7-7-7-7-7-7-0-0-0-0-0-0-0-0-0-0-0-0--|x2
C#|-7-7-7-7-7-7-7-7-7-7-7-7-0-0-0-0-0-0-0-0-0-0-0-0--|

Gtr. 1
D#|-------------------------------------------------------------------|
A#|-10------8------0--------------------------------------------------|
F#|-----------------------2------0/2---0/2-0/2--0/2-4h5-7--9------12--|
C#|-------------------------------------------------------------------|
G#|-------------------------------------------------------------------|
C#|-------------------------------------------------------------------|

Bridge
Gtr. 2
D#|--------------------------|
A#|--------------------------|
F#|-------------------5---4--|
C#|-7----9--10--3----5---5---|
G#|-7---10--10--3---3---2----|x2
C#|-7----9--10--3------------|

Gtr. 1
D#|-12----15-----------------12-10------------------------------|
A#|---------13-12/0/12--10-13-------15/13/12--------------------|
F#|-----------------------------------------12h14--14s9--7------|
C#|-------------------------------------------------------------|
G#|-------------------------------------------------------------|
C#|-------------------------------------------------------------|

D#|-------15-----------------12-10------------------------------|
A#|-12------13-12/0/12--10-13-------15/13/12----------13--12----|
F#|-----------------------------------------12h14--14-----------|
C#|-------------------------------------------------------------|
G#|-------------------------------------------------------------|
C#|-------------------------------------------------------------|

Then
Gtr. 2

D#|-------------------|
A#|-------------------|
F#|-------------------|
C#|-7/7---7/7---7/7---|
G#|-7/7---7/7---7/7---|x4
C#|-7/7---7/7---7/7---|
Gtr. 1
D#|-------------------------------|
A#|-------------------------------|
F#|-14/12/9/12-14/12/14/12/9/12---|
C#|--x/-x/x/-x--x/-x/-x/-x/x/-x---|x4
G#|-12/10/7/10-12/10/12/10/7/10---|
C#|-------------------------------|

Ending
Gtr. 2
D#|-------------|
A#|-------------|
F#|-------------|
C#|-3---5---7---|
G#|-3---5---7---|x8
C#|-3---5---7---|

Gtr. 1
D#|-------------------------------|
A#|-------------------------------|
F#|-14/12/9/12-14/12/14/12/9/12---|
C#|--x/-x/x/-x--x/-x/-x/-x/x/-x---|x8
G#|-12/10/7/10-12/10/12/10/7/10---|
C#|-------------------------------|
Suggest correction
comments
print report bad tab
guest
You may want to rate the tab now too:
select rating
Please do not post tabs as comments. Select "correction" instead!