Oops, an error
Loading. Please wait.

Returning The Smile You Have Had From The Start Bass Tab

version 1
version 1

Whole song

Interactive

1,572 views 1 this week
no commentswrite comment
1 2 3 4 5
x 3
add to favorites
launch autoscroll
font size
0
reset
guitar tuner
Autoscroll
slow
fast
+/-
esc
set tempo
stop
Help us to improve Ultimate-Guitar.com Take our survey!
×
Author
Tuning
D A D G B E
++++++++++++++++++++++++++++++++++++++++++++++++++++++++++
| Emery- Returning The Smile You Have Had From The Start |
++++++++++++++++++++++++++++++++++++++++++++++++++++++++++

Drop D

Intro/Outro
"You wanted to know if.." x2
1.
|---------------------------------| The second time
|---------------------------------| Don't do the
|-11\6-6-6-6~--6-6-6-6~--6-6-6-6~-| Slide ;)
|---------------------------------|

Verse
"As simple as I can.."
2.                  3.
|---------------| |-----------------------|
|---------------| |----------------7h9~\1-|
|-2----------2x-| |--2----------2x--------|
|--420x---024---| |---420x---024----------|

"As your body.."    x2
4.
|---------------| 
|---------------|
|-2----------2x-| 
|--420x---024---| 

Pre-Chorus
"In my memory I wrote you down.."
5.
|----------------------------------4444-|
|-------------------1111-3333-4444------|
|---------------------------------------|
|-44444444-22222222---------------------|

Outro       x2
6.
|------------------------------| 
|------------------------------| 
|-6-6-6-6~--6-6-6-6~--6-6-6-6~-| 
|------------------------------|

Verse
"The fluid in your lungs.."
7.                  8.
|---------------| |------------------11-10~------|
|---------------| |----------------9~--9---9-7\1-|
|-2----------2x-| |--2----------2x---------------|
|--420x---024---| |---420x---024-----------------|

"From conscious to sleep..." x2
9.
|---------------| 
|---------------|
|-2----------2x-| 
|--420x---024---| 

Pre-Chorus
"In my memory I wrote you down.."
10.
|----------------------------------4444-|
|-------------------1111-3333-4444------|
|---------------------------------------|
|-44444444-22222222---------------------|

Chorus
"Something beautiful.." 
11.
|-4-6-4-6-5-7-5-7-8-6-8-----------|
|--6---7---7---8-----8-6~--356-7~-|
|---------------------------------|
|---------------------------------|

"Something torn from my hands.." 
12.
|-8-6-8-------------8-6-8-----------|
|----8-6~--4-6-6-------8-6~--356-7x-|
|-------------6-4~------------------|
|-----------------------------------|

"I'm not ready.."
13.
|----------------------------------|
|----------------------------------|
|-66-666-666-666-666-666-666-66666-|
|----------------------------------|

"I can't leave here like this.." 
14.
|-------------|
|-9~\1--6~-4--|
|-----------6-|  x4
|-------------|

"This day will end.." 
15.
|----------------------------------|
|----------------------------------|
|-66-666-666-666-666-666-666-66666-|
|----------------------------------|

16.
|-------------|
|-9~\1--6~-4--|
|-----------6-|  x6
|-------------|

Outro
"You wanted to know if.." x2
17.
|------------------------------| 
|------------------------------| 
|-6-6-6-6~--6-6-6-6~--6-6-6-6~-| 
|------------------------------|

18.
|----------------------------------|
|----------------------------------|
|-6-6-6-6~--6-6-6-6~--6-6-6-6~-6~~-|
|----------------------------------|

=D

++++++++++++++++

Lyrics:

You wanted to know if
If it was worth the pain that it has caused us.
Both our lives - subtract one life
To know why it was you deserved this

As simple as I can
I'll tell you the difference
Between a pencil and a pen
And where it will leave us now
As your body lets you die,
And I sit here still alive

In my memory I wrote you down in ink
I never wanted to erase your story
Even with the tragedy it brings

The fluid in your lungs
That tells you you're losing, stop breathing
The medicine that comes will fix you
Will help you but takes you from conscious to sleep
Place my hands to face and weep

In my memory I wrote you down in ink
I never wanted to erase your story
Even with the tragedy it brings

Something beautiful
Something torn from my hands

I'm not ready for you to die

(I can't leave here like this, get away from her)
This day will end with a life complete
(that is not all that she was. I don't want to say goodbye yet)
This day will end with a life complete
My closest friend here in front of me

You wanted to know if
If it was worth the pain that it has caused us.
Both our lives - subtract one life
To know why it was you deserved this

+++++++++++++++++++++++++

+++++++++++++++++++++++++++++++++
| RaiLeff                       |
| Underground__Dora@hotmail.com |
+++++++++++++++++++++++++++++++++
Suggest correction
Give kudos to tab author, rate the tab!
1 2 3 4 5
comments
print report bad tab
guest
You may want to rate the tab now too:
select rating
Wanna post a correction for this tab? Suggest correction