Oops, an error
Loading. Please wait.

Rock-N-Rule Bass Tab

version 1
version 1

Whole song

Interactive

882 views 1 this week
no commentswrite comment
1 2 3 4 5
please rate
add to favorites
launch autoscroll
font size
0
reset
guitar tuner
Tab Pro tools
  • play this tab
  • loop segment
  • change instrument
  • show fretboard
  • metronome
×
Best way to learn
"Rock-n-rule"
Autoscroll
slow
fast
+/-
esc
set tempo
stop
Difficulty
novice
-----------------------------------------------------------------
Rock-N-Rule - Emery
-----------------------------------------------------------------

Tabbed By :
e-mail:

Tuning: Drop Db

Intro (bass comes in after trumpet)

0:19 "This is a waking up..." (play x2)
Gb|-----------------------------------------------------------------------------|
Db|-----------------------------------------------------------------------------| 
Ab|----------------------------------3-3-3-3---------0-0-0-0---0---0------------|
Db|--2-2-2-2---------2-2-2-2----------------------------------------------------|

0:41
Gb|-----------------------------------------------------------------------------|
Db|-------(x16)------------(x16)------------(x16)---------(x9)------------------|
Ab|--3333333333333333-0000000000000000-3333333333333333-000000000---------------|
Db|-----------------------------------------------------------------------------|

0:52 "I can't be stopped..." (play x2)
Gb|-----------------------------------------------------------------------------|
Db|-----------------------------------------------------------------------------| 
Ab|---------------------2~-22-22-2~-22-22--0~-00-00-0~-00-00-0~-00-00-0~-00-000-|
Db|--2~-22-22-2~-22-22----------------------------------------------------------|

1:14
Gb|-----------------------------------------------------------------------------|
Db|--2p0-2p0-2p0--2~-p0-2p0-2p0---2p0-2p0-2p0--2~-p0-2p0/5----------------------|
Ab|-------------2--------------2~------------2----------------------------------|
Db|-----------------------------------------------------------------------------|

1:20
Gb|-----------------------------------------------------------------------------|
Db|--2p0-2p0-2p0--2~-p0-2p0-2p0---2p0-2p0-2p0--2--------------------------------|
Ab|-------------2--------------2~------------2----------------------------------|
Db|-----------------------------------------------------------------------------|

1:25 "I drove around Chicago..." (play x2)
Gb|-----------------------------------------------------------------------------|
Db|-----------------------------------------------------------------------------| 
Ab|--3~-------5~-------7~-------7~----------------------------------------------|
Db|-----------------------------------------------------------------------------|

1:47 "I saw a man beside the road..."
            (play z2)                         Second time end with
Gb|-------------------------------------|---------------------------------------|
Db|-------------------------------------|---------------------------------------| 
Ab|--3~-------5~-------7~-------7~------|---/10\\3------------------------------|
Db|---------0/-------0/-----------------|---------------------------------------|

2:09
Gb|-----------------------------------------------------------------------------|
Db|-----------------------------------------------------------------------------|
Ab|--33-33-33-33~-33-55-55-55-55~-55-77-77-77-77~-77-7~-------------------------|
Db|-----------------------------------------------------------------------------|

2:20
Gb|-----------------------------------------------------------------------------|
Db|-----------------------------------------------------------------------------|
Ab|--33-33-33-33~-33-55-55-5-12~------------------------------------------------|
Db|-----------------------------------------------------------------------------|

2:25 "It's the way, it's the way you want it..." (play x4)
Gb|-----------------------------------------------------------------------------|
Db|-----------------------------------------------------------------------------| 
Ab|--5/7--5/7~--\0--------------------------------------------------------------|
Db|-----------------------------------------------------------------------------|

2:47             (play x3)
Gb|-----------------------------------------|-----------------------------------|
Db|-----------------------------------------|-----------------------------------|
Ab|--------------10~-10-10-10--0h12h14\0----|-------------10~-------------------|
Db|--0h2--0h2-0-----------------------------|--0h2-0h2-0------------------------|

2:58 "I guess you don't have faith..."
Gb|-----------------------------------------------------------------------------|
Db|-----------------------------------------------------------------------------|
Ab|--3~----5~----7~------------3~----5~-----------------------------------------|
Db|-----------------------------------------------------------------------------|

3:15 "This is a waking up..."
Gb|-----------------------------------------------------------------------------|
Db|-----------------------------------------------------------------------------|
Ab|-----------------------------------------------------------------------------|
Db|--2-2-2-2---------2-2-2-2---------2-2-2-2---------2-2-2-2--------------------|

Gb|-----------------------------------------------------------------------------|
Db|-----------------------------------------------------------------------------|
Ab|--3-3-3-3---------0-0-0-0---0---0--------------------------------------------|
Db|-----------------------------------2-2-2-2---------2-2-2-2-------------------|


| / slide up
| \ slide down
| h hammer-on
| p pull-off
| ~ vibrato
| + harmonic
| x Mute note
comments
We did not receive enough feedback on this tab! Please rate:
print report bad tab
1 2 3 4 5
I want to post or [tab]
guest
You may want to rate the tab now too:
select rating
Please do not post tabs as comments. Select "correction" instead!