Oops, an error
Loading. Please wait.

So Cold I Could See My Breath Bass Tab

version 2
version 2

Whole song

882 views 3 this week
no commentswrite comment
1 2 3 4 5
3 more votes to show rating
add to favorites
launch autoscroll
font size
0
reset
guitar tuner
Autoscroll
slow
fast
+/-
esc
set tempo
stop
Help us to improve Ultimate-Guitar.com Take our survey!
×
Author
~ = Let ring

INTRO (0:06)             Let’s start with just...
G|---------------------------------------------||
D|---------------------------------------------||   
A|--11111111-11111111-11111111-33344444--------||
E|---------------------------------------------||

G|---------------------------------------------||
D|---------------------------------------------||   
A|--------------------4444444-4~---------------||
E|--22222222-22222222--------------------------||

VERSE (0:16)              You can be...
G|---------------------------------------------||
D|---------------------------------------------||   
A|--444~------444~-------111~--------111~------||   x2
E|---------------------------------------------||

PRECHORUS (0:38)            How quickly...
G|---------------------------------------------||
D|---------------------------------------------||   
A|--44444444-----44444444----------------------||
E|---------------------------------------------||

At the end of each string of notes in the chorus,
stop the ring. Listen to the actual song to get
the exact rhythm.

CHORUS (0:43)             We’re just the...
G|---------------------------------------------||
D|---------------------------------------------||   
A|-3333--33-33-----------------------44--------||
E|-----------------4444----11-11--11-----------||

G|---------------------------------------------||
D|---------------------------------------------||   
A|-3333--33-33---------------------------------||
E|-----------------1111-----------4~-----------||

VERSE (1:04)                 All the suspense...
G|---------------------------------------------||
D|---------------------------------------------||   
A|--444~------444~------111~--------111~-------||   x2
E|---------------------------------------------||

PRECHORUS (1:26)            How quickly...
G|---------------------------------------------||
D|---------------------------------------------||   
A|--44444444--44444444--44444444--44444444-----||
E|---------------------------------------------||

G|---------------------------------------------||
D|---------------------------------------------||   
A|--11111111-11111111-11111111-11111111--------||
E|---------------------------------------------||

G|---------------------------------------------||
D|---------------------------------------------||   
A|--44444444--44444444--44444444--44444444-----||
E|---------------------------------------------||

G|---------------------------------------------||
D|---------------------------------------------||   
A|--11111111-44444444--------------------------||
E|---------------------------------------------||

REMEMBER: Do not let the notes ring.

CHORUS (1:47)             We’re just the...
G|---------------------------------------------||
D|---------------------------------------------||   
A|-3333--33-33-----------------------44-------||
E|-----------------4444----11-11--11-----------||

G|---------------------------------------------||
D|---------------------------------------------||   
A|-3333--33-33---------------------------------||
E|-----------------1111-----------4~-----------||

BRIDGE (2:08)			You could be...
G|---------------------------------------------||
D|---------------------------------------------||   
A|---------------------------------------------||
E|--111111111111111-4444444444444444-----------||

G|---------------------------------------------||
D|---------------------------------------------||   
A|--333333333333333-1111111111111111-----------||
E|---------------------------------------------||

G|---------------------------------------------||
D|---------------------------------------------||   
A|---------------------------------------------||
E|--111111111111111-4444444444444444-----------||

G|---------------------------------------------||
D|---------------------------------------------||   
A|--333333333333333-1111111111111111-----------||
E|---------------------------------------------||

G|---------------------------------------------||
D|---------------------------------------------||   
A|--3333333333333333---------------------------||
E|---------------------------------------------||

CHORUS (2:32)             We’re just the...
G|---------------------------------------------||
D|---------------------------------------------||   
A|-3333--33--33-----------------------4-4------||
E|-----------------4444----11--11--11----------||

G|---------------------------------------------||
D|---------------------------------------------||   
A|-3333--33--33--------------------------------||
E|-----------------1111-----------4~-----------||

OUTRO (2:54)		      My hands across...
G|---------------------------------------------||
D|---------------------------------------------||   
A|--3333333333333333---------------------------||
E|---------------------------------------------||
Suggest correction
Give kudos to tab author, rate the tab!
1 2 3 4 5
comments
print report bad tab
guest
You may want to rate the tab now too:
select rating
Wanna post a correction for this tab? Suggest correction